Acordes de Guitarra » E »Elvis Martinez » Maestra (Tab)
  • Tablatura
    |--rapido--|
    1E||:--------9-13-11-9-11-9-8-8h-9---------------------||
    2B||-----11---------------------------11---------------||
    3G||--10--------------------------------11-------------||
    4D||---------------------------------------------------||
    5A||---------------------------------------------------||
    6E||---------------------------------------------------||
                                                  dos veces.  *solo la primera vez
    1E||-------9--11-9-8-9-8-------------------------13*--:||
    2B||----11-----------------9-9/11-9h-11-9h-11---------:||
    3G||-10-----------------------------------------------:||
    4D||--------------------------------------------------:||
    5A||--------------------------------------------------:||
    6E||--------------------------------------------------:|| cuatro veces
    
    1E||:--------0-8---0-8---------------0-9----0-9------:||-----9---13~----13--------||
    2B||:------9------9------9--------11-----11-----11---:||--11--------------14------||
    3G||:----8---------------------10--------------------:||--10----------------15----||
    4D||:------------------------------------------------:||--------------------------||
    5A||:------------------------------------------------:||--------------------------||
    
  • +
    ¡Colabora con nosotros!
    Envíanos tu versión de esta canción

Letra de Maestra
dos veces. *solo la primera vez
6 5 4 3 2 1
Bbm (x-x- 8- 0-0^7-x)
Soy un hombre inocente todavia, necesito una mujer
Que en las noches me eleve a la luna, volando alto sin dejarme caer
Esa mujer tiene que ser tu, me lo dice el corazon
que tu eres la mujer, no te valla a recistir
ven enseñame a hacer el amor

Como sera la primera vez
que se seinte?
Tocar el cuerpo de una mujer
por primera vez
Maestra, enseñeme usted oh oh...
Desnudese, que yo la quiero ver
Por primera vez!
Para el segundo verso es casi lo mismo.
Se usa los acordes Bbm, F#, y Ab en es orden.
Si lo escuchan bien ya sabran como.
Lleveme a su apartamento y digame que debo hacer
No olvides que soy un nino, y es mi primera vez
Abuse de mi inocencia, no importa lo quiero hacer
Usted me a enloquecido, maestra enseneme
Cuando la vi, usted me imnotiso mi corazon palpito
que linda emocion, mi cuerpo temblo
loco por sentirla, y hacerle el amor
Como sera la primera vez
que se seinte?
Tocar el cuerpo de una mujer
por primera vez
Maestra, enseneme usted.
Desnudese, que yo la quiero ver
Por primera vez!
Transcripcion hecha por javier medina y sal joya.
Si tienen sugerencias mande e-mail a most785@hotmail.com
con “cancion” bajo la linea sujetao o si tienen otras canciones de bachata.



© LaCuerda.net · aviso legal · privacidad · contacto