Acordes de Guitarra » E »Ekhymosis » Solo (Tab)

Solo
Ekhymosis

Letras, Acordes y Tabs para Guitarra, Bajo y Ukulele

  • E--------------------
    B--(0)-0-0-0-3-1-0---
    G----0-0-0-0---------
    D--------------------
    A--------------------
    E--(3)---------------
    
    
    E--------------------
    B--(0)-0-0-0-3-1-0---
    G----0-0-0-0---------
    D--------------------
    A--------------------
    E--(1)---------------
    
    
    E--------------------
    B--(1)-0-0-0-0-1-3---
    G----0-0-0-0---------
    D--------------------
    
  • Acorde F#:        F#-A#-C#
    Acorde B:         B-D#-F#
    Acorde C#:        C#-F-G#
    Acorde G#:        G#-C-D#
    
    
    en donde dice MANO IZQUIERDA
    esos son los acordes y MANO DERECHA
    indica las notas que los acompañan es
    sencillo debido a que esta solo en las
    introducciones les recomiendo escuchar
    la canción y hacerlo similar a lo que va sonando.
    
    No siendo mas..... hay va
    
    
    
    intro
    
    MANO IZQUIERDA:F#
    
  • E ------------------------------------------------------/
    B -0--0---0---3-1-0---0---0-----0-----3-1-0-------------/
    G ---0--0---0-------0---0---0-----0---------0-----------/
    D ------------------------------------------------------/
    A ------------------------------------------------------/
    E -3----3---3---------1-------1-----1-------------------/
    
    E ---------------------------5----5---3----3---2----2---3--0--0----/
    B -1---1-----1-------3h5-3-----0---0----0---0----0---0---0--0--0---/
    G ---0---0-----0-----------------0--0-----0--0-----0--0---0--0-----/
    D -----------------------------------------------------------------/
    A -3-------3------3------------------------------------------------/
    E ---------------------------3--------3--------2--------3----------/
    
    Este punteo lo pueden usar como un riif durante toda la cancion
    Y si lo quieren acompañar hay les van las notas
        G    G7    C    D4   Em    D
    E --3----1-----0----0----0-----2-----/
    B --0----0-----1----3----0-----3-----/
    G --0----0-----0----2----0-----2-----/
    
  • e---------------------------------------------
    B----0-----0--------0---------3--1--0---------
    G-------0-----0--------0----------------------
    D----------------0--------0-------------------
    A---------------------------------------------
    E----3----------------------------------------
    
    Riff 2
    
    e----------------------------------------------
    B---0-----0--------0---------3--1--0-----------
    G------0-----0--------0------------------------
    D---------------3--------0---------------------
    A----------------------------------------------
    E---1------------------------------------------
    
    Rif 3
    
    e-----------------------------------------------
    B----1-----1---------1---------3/5--------------
    
  • Esta es la intro. de Solo de Ekhimosis, ensayenla suena cheverisima.  
    
    E-----------------------+----------------------+
    B---0--0---0---3-1-0----+---0--0---0---3-1-0---+
    G----0--0---0-----------+----0--0---0----------+
    D---------0--0----------+---------3--3---------+
    A-----------------------+----------------------+
    E---3-------------------+---1------------------+
    
    /:resabala con el dedo hasta el otro traste             Fin.
    E---------------------+--5---5---3---3---2---2---3--3--3--++
    B---1--1----1---3/5---+---3--3----3--3----3--3----3--3----++
    G----0--0----0--------+----4-------0-------0-------0--0---++
    D---------2---2-------+-----------------------------------++
    A---3-----------------+-----------------------------------++
    E---------------------+-----------------------------------++
    
    Si tienen tab. de No mercy favor hacermelas llegar, o si sabes donde encontrarlas.
    
    Giovani
    Popayan-Colombia 
    gpalta@latinmail.com
  • ESTA CANCION ES MUY BUENA, Y LO MEJOR ES EL SOLO Q ES UN POCO DIFICIL
    PERO AL FIN LO SAQUE Y ACA ESTA. OJALA LO ENTIENDADN Y LO PUEDAN
    SACAR.
    
    PARTE: SOLO (2:27- 2:45 min)
    E |------------------------------------------------|
    B |------------------------------------------------|
    G |-------------15-15h16-15------------------------|
    D |----16h18-16-------------16-------16-16h18------|
    A |-16-------------------------16-18----------16---|
    E |------------------------------------------------|
    
    E |-----------------------------------1821p18-----------------|
    B |-------------------19-19/20-19--1921------2119----2119-----|
    G |-18h20-18-------------------------------------2018----2018-|
    D |----------21-20-21-----------------------------------------|
    A |-----------------------------------------------------------|
    E |-----------------------------------------------------------|
    
    E |----------------------------------------------------------|
    B |----------------------------------------------------------
  • Em      C          D   
    Es imposible de lograr lo sé (tal vez con ambición)
    Em      C          D
    Es la razón de la vida
    
    (Se repite el punteo)
    
    Me pregunto como hallar
    Un espacio en que confiar
    SI es necesario
    Que mis palabras hablen por mi
    
    Fill 3
    
    Em      C         D
    Como poder aparentarlo (si no lo puedo ser)
    Em         C            D 
    Como expresarlo sin sentirlo (eso no puede ser)
    Em      C           D 
    Es imposible de lograr lo sé (tal vez con ambición)
    
  • +
    ¡Colabora con nosotros!
    Envíanos tu versión de esta canción
  • Tutorial
    HD
    Solo - Ekhymosis: SOLO GUITARRA TAB #23
    0:46

Letra de Solo
Este punteo lo pueden usar como un riif durante toda la cancion
Y si lo quieren acompañar hay les van las notas
Estoy solo y pienso que
Es un horizonte más que alcanzar
A) Paso a paso siempre voy
Construyendo en mi vida
Tropezando
Constantemente con lo que sueño
1er CORO
Es imposible de lograr lo sé
Tal vez con ambición
Es la razón de la vida no…
A) Me pregunto como hallar
Un espacio en que confiar
Que mis palabras
Hablen por mí
2do CORO
Como poder aparentarlo
Si no lo puedo ser
Como expresarlo sin sentirlo
Eso no puede ser
Es imposible de lograr lo sé
Tal vez con ambición
Es la razón de la vida no…
3er CORO
Es duro estar en soledad
Es deprimir el corazón
Es caminar sin libertad
Es destruir lo que no esta
Mira mis ojos y veras
Es demasiado ser el mismo
Riif …
A) Me pregunto como hallar
Un espacio en que confiar
Que mis palabras
Hablen por mi
2do CORO
B) Como poder aparentarlo
Sino lo puedo ser
Como expresarlo sin sentirlo
Eso no puede ser
Es imposible de lograr lo sé
Tal vez con ambición
Es la razón de la vida no…
3er CORO
C) Es duro estar en soledad
Es deprimir el corazón
Es caminar sin libertad
Es destruir lo que no esta
Mira mis ojos y veras
Es demasiado ser el mismo
Riif …
listo amigos es un error muy diminuto
pero lo notaran
persona muy especial y que quiero mucho
para claudia maritza farfan cardenas de la
ciuda de bogota d.c de colombia.




[Solo chords][Solo cifra]
© LaCuerda.net · aviso legal · privacidad · es · en · pt · contacto