Acordes de Guitarra » E »Edgar Lira » Es la historia (Tab)

Es la historia
Edgar Lira

  • Letra y Acordes
              C2         G/B          G/Bb A7
    Es la historia de casi todos nosotros
            Dm7       F             Dm7       G
    Nos cortaron las alas, mucho antes de volar
          C2          G/B           G/Bb   A7
    Nos dijeron que somos los de abajo
                Dm7     F             Dm7        G  Dm7
    Que aunque miremos arriba nunca podremos llegar.
    
                   F
     Que nadie te diga
                C2
    Que no llegaras
               Dm7
    Son solo palabras
        F      C2
    Que no pasaran
                 Dm7
    Si puedes creer
                   F
    
  • Letra y Acordes
    INTRO (Dm7  C) Se toca 2 veces
              C          C6       C5
    Es la historia de casi todos nosotros
      A7      Dm7                           G
     Nos cortaron las alas, mucho antes de volar
            C           C6          C5       A7
    Nos dijeron que somos los de abajo
                Dm7                              G
    Que aunque miremos arriba nunca podremos llegar.
    << Coro >>
    Dm7             F
     Que nadie te diga
               C
    Que no llegaras
                 Dm7
    Son solo palabras
          F     C
    Que no pasaran
                 Dm7
    Si puedes creer
    
  • Tablatura
          Dm7                          C
    E|-------------------------------------------|
    A|-----------------------------3-------------|
    D|0------------------------------2---------2-|   X2
    G|--2-----2-----2-----------2------0-----0---|
    b|----1-----1-----1-------1------------1-----|
    e|------1-----0-----0h1-0------------0-------|
    
    
    Estrofa I
           C           C6       C5         A7
    E|----------------------------------------|
    A|--------3-------3-2-------2-1--------0--|
    D|---------2-----2---0-----0---0-------2--|
    G|----------0---0-----0---0-----0---0--0--|
    b|-----------1-1-------1-1-------1-1---2--|
    e|------------0---------0---------0----0--|
    En la historia de casi todos nosotros
    
              Dm7    F                        G
    
  • +
    ¡Colabora con nosotros!
    Envíanos tu versión de esta canción

Letra de Es la historia
Es la historia de casi todos nosotros
Nos cortaron las alas, mucho antes de volar
Nos dijeron que somos los de abajo
Que aunque miremos arriba nunca podremos llegar.
<< Coro >>
Que nadie te diga
Que no llegaras
Son solo palabras
Que no pasaran
Si puedes creer
Si puedes confiar
No tardara mucho
Cuando lo veras
Es la historia de casi todos nosotros
Los que nacieron abajo, abajo se quedaran
Con mucho esfuerzo y paciencia al final llegara
El sueño ya esta
Dentro de ti
Con la promesa
De que llegaras
Fuerte tienes que ser
Para resistir
Pues no falta mucho
Cuando lo veras



© LaCuerda.net · aviso legal · privacidad · contacto