Tablatura para Guitarra de Ebenezer: Así como David danzaba
Conexión · Inscripción
Letras y Acordes
Pantalla Completa
Imprimir
Versión Texto
Añadir Favorito
Otras Versiones

Mostrar Diagramas
Desfile Automático
Manipular Acordes
Formato del Texto


Así como David danzaba(TAB)

Ebenezer

calidad:
ehnd0052
AUTOR: Ebenezer  corregir
ALBUM: Nuestro Legado
Enviado por Ronny
Esta se toca en Am


Intro
e|-12-12-12-10----10-12-15-12-12-12-10-10-----------------------
B|-------------13-------------------------13-12-13-12-----------
G|--------------------------------------------------------------
D|--------------------------------------------------------------
A|--------------------------------------------------------------
E|--------------------------------------------------------------


e|--10-13-10--------------13-13-12------------------------------
B|-----------12-12-13-12----------------------------------------
G|--------------------------------------------------------------
D|--------------------------------------------------------------
A|--------------------------------------------------------------
E|--------------------------------------------------------------

Mis amigos es algo muy sencillo pero de todo corazon,
porque es para el Rey de Reyes..
en cualquir cosa que les pueda ayudar ronnyvrr@hotmail.com  Bendiciones
Este fichero es trabajo propio de su transcriptor y representa su interpretación personal de la canción. El material contenido en esta página es
para exclusivo uso privado, por lo que se prohibe su reproducción o retransmisión, así como su uso para fines comerciales.

© LaCuerda.net · Aviso Legal · Privacidad