Acordes de Guitarra » D »Divino » Mi Vida (Tab)

Mi Vida
Divino

Letras, Acordes y Tabs para Guitarra, Bajo y Ukulele

  • MI vida divino
    
    la canción inicia con un punteo
    
    
    e|--10-10----------------10-10----------------10-10-12-15-10-------|
    b|--------13-12-13-12-13-------13-12-13-12-13----------------13----|
    g|-----------------------------------------------------------------|
    d|-----------------------------------------------------------------|
    a|-----------------------------------------------------------------|
    E|-----------------------------------------------------------------|
    
    
    e|-----------------------------------------------------------------|
    b|-----------------------------------------------------------------|
    g|-----------------------------------------------------------------|
    d|--7-9/10-9-------------------------------------------------------|
    a|-----------------------------------------------------------------|
    E|-----------------------------------------------------------------|
    
    
  • e|--10-10----------------10-10----------------10-10-12-15-10-------|
    b|--------13-12-13-12-13-------13-12-13-12-13----------------13----|
    g|-----------------------------------------------------------------|
    d|-----------------------------------------------------------------|
    a|-----------------------------------------------------------------|
    E|-----------------------------------------------------------------|
    
    
    e|-----------------------------------------------------------------|
    b|-----------------------------------------------------------------|
    g|-----------------------------------------------------------------|
    d|--7-9/10-9-------------------------------------------------------|
    a|-----------------------------------------------------------------|
    E|-----------------------------------------------------------------|
    
         G
    No puedo cambiar mi esencia
      Em
    puedo mejorar mis flaquezas
          C              G/B
    
  • +
    ¡Colabora con nosotros!
    Envíanos tu versión de esta canción

Letra de Mi Vida
la canción inicia con un punteo
No puedo cambiar mi esencia
puedo mejorar mis flaquezas
si quieres camina conmigo
quisiera amarte hasta el infinito
no puedo bajarte la luna
si puedo llevarte hacia ella
no puedo bajarte una estrella
si puedo tratarte como a una de ellas
te observaria hasta que no haya vista
te segiria hasta el final del mundo si en el dia te perdiera
hasta encontrarte no me marcharia
le pediria a dios que te cuidara
que en el peligro siempre te guardara
y cuando llega al fin la noche
darte las gracias porque estas aqui
AQUI LOS MISMO ACORDES...
no puedo cambiar mis constumbres
puedo mejorar mi rutina
no puedo evitar si hace frio
pero se que puedo servirte de abrigo
no puedo entregarte el mundo
si puedo llevarte donde quieras
no puedo ser rey de Inglaterra
si puedo tratarte como una princesa
te observaria hasta que no aya vista
te segiria hasta el final del mundo si en el dia te perdiera
hasta encontrarte no me marcharia
le pediria a dios que te cuidara
que en el peligro siempre te guardara
y cuando llega alfin la noche
darte las gracias porque estas aqui
Si tu presencia es fuerte
mi corazon lo siente y lo sabe que tu eres mi vida
que sin ti no puedo vivir ooh
te observaria hasta que no haya vista
te segiria hasta el final del mundo si en el dia te perdiera
hasta encontrarte no me marcharia
le pediria a dios que te cuidara
que en el peligro siempre te guardara
y cuando llega al fin la noche
darte las gracias porque estas aqui
te segiria hasta el final del mundo si en el dia te perdiera
hasta encontrarte no me marcharia
le pediria a dios que te cuidara
que en el peligro siempre te guardara
y cuando llega al fin la noche
darte las gracias porque estas aquí
darte las gracias porque estas aqui




[Mi Vida chords][Mi Vida cifra]
© LaCuerda.net · aviso legal · privacidad · es · en · pt · contacto