Tablatura para Bajo de Divididos: Gol de Mujer
Conexión · Inscripción
Letras y Acordes
Pantalla Completa
Imprimir
Versión Texto
Añadir Favorito
Otras Versiones

Mostrar Diagramas
Desfile Automático
Formato del Texto


Gol de Mujer(BAJ)

Divididos

calidad:
divi0201
AUTOR: Jorge Araujo, Diego Arnedo, Ricardo Mollo
ALBUM: Gol de Mujer
Enviado por gonzalo
PARA QUE SE TERMINEN LAS DISCUSIONES DE ESTE TEMA, AHI VA.

s(): arrastra hasta esa nota

VERSOS:

   Em                              Em
G------------------12---------------------------------------
D---------12-13-14----14-----------------12--12-13-14-------
A------14-----------------------------14--------------------
E--0---------------------0-2-5-0-3-0------------------0-2-0-

ESTRIBILLOS:

       (los novios...)          (gritando...)

  Em                      Em
G----------------------------------------------
D----------------------------------------------
A----------------------------------------------
E-0---0-------------------0---0----------------

      (la moustrosa...)         (del amor...)

   Em5dis                    Em5dis
G---------------------------------------------
D--8-------------------------8----------------
A--7-------------------------7----------------
E---------------------------------------------

BAJADA ANTES DEL ULTIMO VERSO:

G---------------------------------------------
D---------------------------------------------
A--2-0----------------------------------------
E------3-2-0s(12)-----------------------------

ENTRADA AL SOLO:

G---------------------------------------------
D---------------------------------------------
A--3-2----------------------------------------
E---------------------------------------------

- Aca cae en la nota Sol e improvisa en Sol Mayor
que es la relativa mayor de Mi menor (tono del tema).
Este fichero es trabajo propio de su transcriptor y representa su interpretación personal de la canción. El material contenido en esta página es
para exclusivo uso privado, por lo que se prohibe su reproducción o retransmisión, así como su uso para fines comerciales.

© LaCuerda.net · Aviso Legal · Privacidad