Tablatura para Bajo de Divididos: Gol de Mujer
Conexión · Inscripción
Letras y Acordes
Pantalla Completa
Imprimir
Versión Texto
Añadir Favorito
Otras Versiones

Mostrar Diagramas
Desfile Automático
Formato del Texto


Gol de Mujer(BAJ)

Divididos

calidad:
divi0202
AUTOR: Jorge Araujo, Diego Arnedo, Ricardo Mollo
ALBUM: Gol de Mujer
Enviado por Pedro
PARTE 1:

1|-------------12-------------------------------------
2|-------12--14--14--------------12--12-13-14---------
3|-----14----------------------14--14-----------------
4|-0---------------0-3-3-2-3-0----------------0-0-0-0-

ESTRIBILLO:

 (Los novios en rueditas van) (gritando ese gol)
1|----------------------------------------------
2|----------------------------------------------
3|----------------------------------------------
4|-0---0----------------------0---0-------------

      (La monstruosa ilusion)  (Del amor)
1|---3---------4----------------3--------------
2|---2---------2----------------2--------------
3|---3---------3----------------3--------------
4|---------------------------------------------

EN EL SEGUNDO ESTRIBILLO LA CAIDA DE NOTAS QUE LE SIGUE ES:

1|------------------------------------------
2|------------------------------------------
3|------------------------------------------
4|---5----4----3----2----1----0-------------


EL SOLO DE BAJO ACARGO DEL INTERPRETE, para el q no tenga mucha idea
el dibujo es el siguiente:

1|----------------7-8--10--12-13--15--17------
2|----------------7-8--10---------------------  /*usen la creatividad
3|----------------7-8--10---------------------    y hagan q salga algo
4|------------------8-------------------------    copado de esto*/

para el q no pueda..  hay suficientes octavas como para eslapear,
asi q pueden hacer la gran "arnedo", si no les sale lo primero.
Este fichero es trabajo propio de su transcriptor y representa su interpretación personal de la canción. El material contenido en esta página es
para exclusivo uso privado, por lo que se prohibe su reproducción o retransmisión, así como su uso para fines comerciales.

© LaCuerda.net · Aviso Legal · Privacidad