Acordes de Guitarra » D »Despistaos » Cuando Lloras (Tab)

Cuando Lloras
Despistaos

Letras, Acordes y Tabs para Guitarra, Bajo y Ukulele

  •            F               C
    Cuando lloras, se para el mundo
         Dm          A#
    Y nunca se que decir
               F           C
    Cuando lloras, me derrumbo
         Dm          A#
    Y no me sale fingir
    
           F             C
    Cuando lloras, las horas
           Dm            A#
    Le dan la vuelta al reloj
           F           C
    Cuando lloras, a solas
           Dm          A#
    Me muerdes el corazón
    
    A#                                 F
    Piensa en lo que piensas cuando lloras
    
  •       F         C         Dm        A#
    E|------------------------------------------------------|
    B|----------10-11-10-8-10-8----------10-13-11-10-11-10--|
    G|-10-10-12-----------------10-10-12--------------------|
    D|------------------------------------------------------|
    A|------------------------------------------------------|
    E|------------------------------------------------------|
    
    
    
    F       C       Dm        A#
    
    
    E|------------------------------------|
    B|---------10-11-10-8-10-8-6-15-13----|
    G|---10-12----------------------------|
    D|------------------------------------|
    A|------------------------------------|
    E|------------------------------------|
    
    
  • +
    ¡Colabora con nosotros!
    Envíanos tu versión de esta canción

Letra de Cuando Lloras
Cuando lloras, se para el mundo
Y nunca se que decir
Cuando lloras, me derrumbo
Y no me sale fingir
Cuando lloras, las horas
Le dan la vuelta al reloj
Cuando lloras, a solas
Me muerdes el corazón
Piensa en lo que piensas cuando lloras
Cuando me dices que no
Piensa lo que quieras pero ahora
Cuando lloras, se tuerce el rumbo
Y no tengo a donde ir
Cuando lloras, yo me hundo
Y tardo en volver a salir
Cuando lloras, las horas
Le dan la vuelta al reloj
Cuando lloras, a solas
Me muerdes el corazón
Piensa en lo que piensas cuando lloras
Cuando me dices que no
Piensa lo que quieras pero ahora
Pero ahora
Piensa en lo que piensas cuando lloras
Cuando me dices que no
Piensa lo que quieras pero ahora
El que llora soy yo
El que llora soy yo
El que llora soy yo
Cualquier duda, sugerencia o petición
danitetus@gmail.com




[Cuando Lloras chords][Cuando Lloras cifra]
© LaCuerda.net · aviso legal · privacidad · es · en · pt · contacto