Acordes de Guitarra » D »Desorden Social » Una canción para tí (Tab)

Una canción para tí
Desorden Social

Letras, Acordes y Tabs para Guitarra, Bajo y Ukulele

  • E|------------------------------------|
    B|-------7----------------------------|
    G|-----7----------6--------4--------6-|
    D|---7----------7--------5--------7---|
    A|-5----------7--------5--------7-----|
    E|----------5--------3--------5-------|
    
    E|-------------------------------------5~~--|
    B|-------------------------------------7~~--|
    G|-----7----------6--------4--------6--7~~--|
    D|---7----------7--------5--------7----7~~--|
    A|-5----------7--------5--------7------5~~--|
    E|----------5--------3--------5-------------|
    
    (CON DISTORICION)
    E|---------------------|-------------------------|
    B|----------------X2---|----------------X2-------|
    G|-7777----------------|-7-----------------------|
    D|-7777-7777-5555-7777-|-77555-7-----5-----7-----|
    A|-5555-7777-5555-7777-|-55555-77777-55555-77777-|
    
  • +
    ¡Colabora con nosotros!
    Envíanos tu versión de esta canción

Letra de Una canción para tí
(CON DISTORICION)
A|-5555-7777-5555-7777-|-55555-77777-55555-77777-|
**** **** **** ****
Comienza esta cancion dedicada a nuestro hogar
diciendo que no hay nada mejor que mi ciudad
unas son de cal y otras son de arena
pero que orgulloso me siento de vivir en esta tierra
Bogota, Bogota, te llevo en mi venas
Bogota, Bogota, azul y roja tu pasion
Bogota, Bogota, orgullo de una raza
Bogota, Bogota, mi ciudad mi ciudad
A|-55555-77777-55555-77777-|
**** **** **** ****
Tus calles y tus barrios son una enciclopedia
con miles de historias que a todos nos afectan
por eso cuando camines por sus calles o sus puentes
Acuerdate tambien que eres parte de ste cuento
Bogota, Bogota, te llevo en mi venas
Bogota, Bogota, azul y roja tu pasion
Bogota, Bogota, orgullo de una raza
Bogota, Bogota, mi ciudad mi ciudad
(GUITARRA LIMPIA)
De doce chozas y una iglesia
pasate a ser la Atenas de America
por eso orgulloso me siento de decir
que esta cancion va dedicada a ti
Miles de colores adornan la ciudad
que simboliza una patria no solo los de aca
asi que escucha bioen y trata de de entender
que si no eres de aqui no nos vengas a joder y evacua
(GUITARRA LIMPIA)
(CON DISTORICION)
A|-5555-7777-5555-7777-|-55555-77777-55555-77777-|
**** **** **** ****
Termino esta cancion dedicada a nuestro hogar
repitiendo que no hay nada mejor que mi ciudad
unas son de cal y otras son de arena
pero que orgulloso me siento de vivir en esta tierra
Bogota, Bogota, te llevo en mi venas
Bogota, Bogota, azul y roja tu pasion
Bogota, Bogota, orgullo de una raza
Bogota, Bogota, mi ciudad mi ciudad
A|-5555-7777-5555-7777-|-55555-77777-55555-77777-|
**** **** **** ****
ACORDES:

Video de Una canción para tí
[]




[Una canción para tí chords][Una canción para tí cifra]
© LaCuerda.net · aviso legal · privacidad · es · en · pt · contacto