Acordes de Guitarra » D »Desorden Social » Quiero Ser (Tab)

Quiero Ser
Desorden Social

Letras, Acordes y Tabs para Guitarra, Bajo y Ukulele

  • E|-----------------------|
    B|-----------------------|
    G|-7-7-------------------| X4
    D|-7-7--5-5--4-4--77-55--|
    A|-5-5--5-5--4-4--77-55--|
    E|------3-3--2-2--55-33--|
    
    E|-5-5-5-5--3-3-3-3--5-5-5-5--3-3-3-3--|
    B|-5-5-5-5--3-3-3-3--5-5-5-5--3-3-3-3--|
    G|-7-7-7-7--4-4-4-4--6-6-6-6--4-4-4-4--|
    D|-7-7-7-7--5-5-5-5--7-7-7-7--5-5-5-5--| x4
    A|-5-5-5-5--5-5-5-5--7-7-7-7--5-5-5-5--|
    E|----------3-3-3-3--5-5-5-5--3-3-3-3--|
    
    Dsus2   G     A     G
    Caminaba miles de cuadras
    
    Dsus2   G     A     G
    Solo por verte cada vez que tu pasabas
    Dsus2     G       A     G
    
  • +
    ¡Colabora con nosotros!
    Envíanos tu versión de esta canción

Letra de Quiero Ser
D|-7-7--5-5--4-4--77-55--|
A|-5-5--5-5--4-4--77-55--|
E|-5-5-5-5--3-3-3-3--5-5-5-5--3-3-3-3--|
B|-5-5-5-5--3-3-3-3--5-5-5-5--3-3-3-3--|
G|-7-7-7-7--4-4-4-4--6-6-6-6--4-4-4-4--|
D|-7-7-7-7--5-5-5-5--7-7-7-7--5-5-5-5--| x4
A|-5-5-5-5--5-5-5-5--7-7-7-7--5-5-5-5--|
Caminaba miles de cuadras
Y me decía que yo algún día
Iba a estar contigo por el resto de mi vida
Tú me ignorabas tanto
Y yo seguía luchando
Tus amigas lo notaban
Y a ti no te importaba
Quiero ser el que piensa sin pensar
Quiero ser el que ama sin igual
Quiero ser el que piensa sin pensar
Quiero ser el que ama sin igual
Caminabas miles de cuadras
Y sonreías cada vez que me mirabas
Tú ya sabías que me importabas
Que eras lo único que me movía el alma
Ahora que tú me hablas
Tu voz me llega al alma
Eres la luz del día
Eres toda mi vida
Quiero ser el que piensa sin pensar
Quiero ser el que ama sin igual
Quiero ser el que piensa sin pensar
Quiero ser el que ama sin igual
Quiero ser
Quiero ser
Quiero ser
Quiero ser
ACORDES:

Video de Quiero Ser
[]




[Quiero Ser chords][Quiero Ser cifra]
© LaCuerda.net · aviso legal · privacidad · es · en · pt · contacto