Acordes de Guitarra » D »DeSaloon » Extrañarte (Tab)

Extrañarte
DeSaloon

Letras, Acordes y Tabs para Guitarra, Bajo y Ukulele

  •       A5               Dsus2
    E ------------------------------|
    B -------0------------------3---|
    G ----2----2-------------2------| PUEDEN TOCARLA RASGUEADA O PUNTEADA
    D --------------------2---------|             |
    A --5---------------------------|             |
    E ------------------------------|             |
                                                  |
    ----------------------------------------------|
    FIGURA 1 [x4]
    
    A)
    
    A5            Dsus2    A5       Dsus2
    Saber que no es normal pedirlo todo
    A5         Dsus2 A5          Dsus2
    un beso digital, no cambia nada
    
    [coro]
                        Em
    
  • B ||--------------3---3---3--||
    G ||---------4--0---4---4----||
    D ||-----2-------------------||
    A ||--0----------------------||
    E ||-------------------------||
         Fig 1
    
    ||----------------|| ||--------------------||
    ||----------------|| ||-----------3----3---||
    ||----------4-----|| ||--------------0-----||
    ||-------2--------|| ||--------2-----------||
    ||---0------------|| ||----3---------------||
    ||----------------|| ||--------------------||
       Fig 2               fig 3
    
    Intro.- fig 1 x 4
    
    A.-
    fig 2                           fig 3
    Saber que no es normal pedirlo todo
    
  • +
    ¡Colabora con nosotros!
    Envíanos tu versión de esta canción

Letra de Extrañarte
|
FIGURA 1 [x4]
Saber que no es normal pedirlo todo
un beso digital, no cambia nada
como se arregla mi corazon
cansado de extrañarte
como se arregla mi corazon
cansado de extrañar
FIGURA 1 [x4]
Saber que no es normal, quererlo todo
tu beso digital, no cambio nada
y mis ojos se cierran, siempre es igual
como se arregla mi corazon
cansado de extrañar DOS VECES
como se arregla mi corazon
cansado de extrañarte
como se arregla mi corazon
cansado de extrañar
RIFF
mis ojos se cierran, siempre es igual
como se arregla mi corazon.... [x8]
FINAL :FIGURA 1 [x8]




[Extrañarte chords][Extrañarte cifra]
© LaCuerda.net · aviso legal · privacidad · es · en · pt · contacto
DINAMICO