Acordes de Guitarra » D »Demente comun » Mas allá (Tab)

Mas allá
Demente comun

Letras, Acordes y Tabs para Guitarra, Bajo y Ukulele

  • MÁS ALLÁ
    
    e--------------------------------
    b--------------------------------
    g--------------------------------
    d-5-6----------------------------
    a-----6-6-6-6---4-6-8-8-8-8------
    E--------------------------------
    
    
    e--------------------------------
    b--------------------------------
    g--------------------------------
    d-5-6----------------------------
    a-----6-6-6-6---4-4-4-3----------
    E--------------------------------
    
    e--------------------------------
    b--------------------------------
    g--------------------------------
    d-5-6----------------------------
    a-----6-6-6-6---4-6-8-8-8-8------
    E--------------------------------
    
    e--------------------------------
    b--------------------------------
    g--------------------------------
    d-5-6--8--6-5-6/5/6--------------
    a--------------------6-----------
    E--------------------------------
    
    PUEDO VER MÁS ALLÁ 
    DE LO QUE PENSABA
    PUDE IR MÁS CERCA DEL
    CALOR QUE ME LLAMA
    Y COGER UN SUEÑO QUE
     ESTABA OLVIDADO
    Y DE TUS 
  • +
    ¡Colabora con nosotros!
    Envíanos tu versión de esta canción



Video de Mas allá
[]




[Mas allá chords][Mas allá cifra]
© LaCuerda.net · aviso legal · privacidad · es · en · pt · contacto