Acordes de Guitarra » D »David Summers » El beso y el perfume (Tab)

El beso y el perfume
David Summers

Letras, Acordes y Tabs para Guitarra, Bajo y Ukulele

  • Intro: D E7sus/D
    
         D     Am(7)               D
    a)Aquí yace, yace el beso y el perfume,
        Am7             Em      Bbdim          Bm(7)
    las palabras y las nubes, el rímel y la cara...
         D        Am(7)          D
    Y la tarde se apodera de la casa,
           Am(7)         Em          Bbdim          Bm(7)
    de las veces que te quise, de la luz en las ventanas...
    
                  G             Asus
    b)Y que te he podido hacer, dime en que te pude herir,
             Bm                    Bm7
    ¿Cómo he podido dejarte marchar así?,
         G                    Asus
    Cada trozo de pared, cada pedazo de mí,
    Bm               Bm7
    Todo me habla de tí...
    Em         Asus  Em           Asus(9)
    
  •      C     Gm7                C
    Aquí yace, yace el beso y el perfume,
        Gm7             Dm        G#m          Am
    las palabras y las nubes, el rimel y la cara...
         C        Gm7            C
    Y la tarde se apodera de la casa,
           Gm7           Dm           G#m          Am
    de las veces que te quise, de la luz en las ventanas...
    
                F             G
    Y que te he podido hacer, dime en que te pude herir,
             Am
    ¿Cómo he podido dejarte marchar así?,
         F                    G
    Cada trozo de pared, cada pedazo de mí,
    Am                          Dm          G  Dm           G
    Todo me habla de tí... Hace poco tiempo y todo huele a tí...
    
            C                    Dm           G
    La luna llena de sombras, el cielo dónde estuve,
    
  • Este es el solo de la versión en concierto
    
       p - Pull off
       h - Hammer on
       / - Slide
       v – Vibrato
       b – Bend
      () – Armónico Artificial
    
    
    
    ---------------------------------------------------------------------
    ---------------------------------------------------------------------
    ----------------------------------4-5/7-4----------------------0----0
    ------5-5-5-7-5--5-7-5--------5-7---------5-----------------2--------
    --5-7---------------------5/7----------------5-5h7-5-----------------
    ---------------------------------------------------------------------
    
    
    ---------------------------------------------------------------------
    ---------------------------------------------------------------------
    -0---2-0-------0-2-------5---5/7-5-4-5/7-----------------------------
    ---2---------2----------------------------5--------------------------
    ---------------------------------------------5--------------------5-8
    ------------------------------------------------5-5h7-3--------------
    
    
    
    ---
  • Hola amigos.
    Como miré que el solo de la canción no estaba incluido 
    decidí colaborar con mi transcripción
    Aqui les va..
    
    E||--------------------------|---------------------------|
    B||--------------------------|---------------------------|
    G||--------------------------|---------2/4-5--4------7-5-|
    D||---------------2h-3h-2----|--2h3h2--------------------|
    A||------3--3--3-------------|---------------------------|
    E||--0-1---------------------|---------------------------|
    
    
    --------------------------|------------------------|
    --------------------------|------------------------|
    --4-5----5--5--5--5--7--9-|---7---4--5--5-7--7-----|
    --------------------------|------------------------|
    --------------------------|------------------------|
    --------------------------|------------------------|
    
    ----------------8--7-------|
    --------8-8--8--------8--8-|
    --7-9-7--------------------|
    ---------------------------|
    ---------------------------|
    ---------------------------|
    
  •   C
    e-0-----------------------------------0---------------3--0h1-0-----
    B---3p1-3---1---3--1---3------1-3--------3p1--3--1-------------3-1-
    G-------------0------0------0----------------------0---------------
    D------------------------------------------------------------------
    A-3-----------------------------------3---------------3------------
    E------------------------------------------------------------------
    
          C             Gm          C9
    Aquí yace, yace el beso y el perfume,
           Gm          Dm
    las palabras y las nubes,
    Fdis          Am                 Fdis    4567xx
    el rimel y la cara.
    
    Y la tarde, se apodera de la casa,
    de las veces que te quise,
    de la luz de las ventanas.
    
                  F
    
  • +
    ¡Colabora con nosotros!
    Envíanos tu versión de esta canción

Letra de El beso y el perfume
a)Aquí yace, yace el beso y el perfume,
las palabras y las nubes, el rímel y la cara...
Y la tarde se apodera de la casa,
de las veces que te quise, de la luz en las ventanas...
b)Y que te he podido hacer, dime en que te pude herir,
¿Cómo he podido dejarte marchar así?,
Cada trozo de pared, cada pedazo de mí,
Todo me habla de tí...
Hace poco tiempo y todo huele a ti...
c)La luna llena de sombras, el cielo dónde estuve,
el rímel y la cara, el beso y el perfume...
a)Aquí duerme, duerme el miedo que llueve dentro
y la luna que perdimos... y el árbol de tus sueños...
Y las fotos... una chica rodeando
con sus brazos a un chico con suerte y con cara de tonto...
Y que nada pudo hacer para hacerte feliz
y que no entiende la vida sin ti...
b)Dame otra oportunidad aunque no quieras hablar
Dejaré una puerta abierta... sé que te gusta escuchar
cuando hablo de ti, y solo hablo de ti...
b)La luna llena de sombras, los minutos, las horas,
los cuadros de la casa, los libros y las lágrimas,
tu lado de la cama, el cielo dónde estuve,
el rímel y la cara, el beso y el perfume...
El beso y el perfume,
el beso y el perfume...
ACORDES
(DAFCGD)
Tener en cuenta la afinación en Re Las notas qua aparecen con un
número entre paréntesis se refieren al arreglo que se da en la
(pisar primera cuerda en traste 3) y vuelve al Am, igual con el
Trate de sacarla lo mas fiel a los acordes que aparecen en el video
y pues suena muy bien cualquier comentario, duda, sugerencia bienvenido.
Ah y por supuesto un tema más para Nata




[El beso y el perfume chords][El beso y el perfume cifra]
© LaCuerda.net · aviso legal · privacidad · es · en · pt · contacto