Acordes de Guitarra » D »Danna Paola » Mundo de caramelo (Tab)

Mundo de caramelo
Danna Paola

Letras, Acordes y Tabs para Guitarra, Bajo y Ukulele

  •       D#          A#          Cm            G#           A#
    e)----------|-----------|-------------|------------|------------]
    B)----------|-----------|-------------|------------|------------]
    G)------8---|-----------|--------3----|------------|------------](x2)
    D)---8----8-|-------8---|----5-----5--|--------6---|-------8----]
    A)-6---6----|---8-----8-|--3---3------|----6-----6-|---8-----8--]
    E)----------|-6---6-----|-------------|--4---4-----|-6---6------]
    
    
              D#
    Hazme un mundo de caramelo
              A#
    Llena él aire com algodón
            Cm
    Que los dulces caigan del cielo
            A#
    Las estrellas piñatas son
          G#
    De repente las alegrías
            D#
    
  • B)-----------|-----------|-------------|------------|------------]
    G)-------3---|-------3---|--------3----|------------|------------]
    D)---5-----5-|---3-----3-|----5-----5--|--------6---|-------8----]
    A)-3---3-----|-1---1-----|--3---3------|----6-----6-|---8-----8--]
    E)-----------|-----------|-------------|--4---4-----|-6---6------]
    
    e)-----------|-----------|-------------|---------------|
    B)-----------|-----------|-------------|---------------|
    G)-------3---|-------3---|--------3----|------------3--|
    D)---5-----5-|---3-----3-|----5-----5--|--6---8-----3--|
    A)-3---3-----|-1---1-----|--3---3------|--6---8-----1--|
    E)-----------|-----------|-------------|--4---6--------|
    
    
              D#
    Hazme un mundo de caramelo
              A#
    Llena él aire com algodón
            Cm
    Que los dulces caigan del cielo
    
  •           D
    Hazme un mundo de caramelo
              A
    Llena él aire con algodón
            Bm
    Que los dulces caigan del cielo
            A
    Las estrellas piñatas son
          G
    De repente las alegrías
            D/G
    Se me antojan de corazón
           Em
    Sí me como a besos la vida
          A
    Chocolates los sueños son
    
    
            D
    Pa’ que todo lo que este bueno
    
  •     D#    A#   Cm     G#   Fm    Gm
    e)--3--|--1--|--3--|--4--|--1--|--3--]
    B)--4--|--3--|--4--|--4--|--1--|--3--]
    G)--3--|--3--|--5--|--5--|--1--|--3--]
    D)--5--|--3--|--5--|--6--|--3--|--5--]
    A)--6--|--1--|--3--|--6--|--3--|--5--]
    E)--3--|--1--|--3--|--4--|--1--|--3--]
    
    “MUNDO DE CARAMELO”
    
    INTRO:
          D#           A#          Cm            A#
    e)-----------|-----------|-------------|---------------------]
    B)-----------|-----------|-------------|---------------------]
    G)-------3---|-------3---|-----3-------|---------------------]
    D)-----5---5-|-----3---3-|---5---5-----|-------6---------8---]
    A)-5/6-------|-6/5-------|-3-----------|-----6---6-----8-----]
    E)-----------|-----------|-------------|-3/4-------4/6-------]
          D#           A#          Cm           A#
    e)-----------|-----------|-------------|--------------]
    
  • +
    ¡Colabora con nosotros!
    Envíanos tu versión de esta canción

Letra de Mundo de caramelo
Hazme un mundo de caramelo
Llena él aire com algodón
Que los dulces caigan del cielo
Las estrellas piñatas son
De repente las alegrías
Se me antojan de corazón
Sí me como a besos la vida
Chocolates los sueños son
(aqui cambia al arpegio de la intro)
Pa’ que todo lo que este bueno
Siempre este a punto de turrón
Si los dulces son de colores
Los recuerdos también lo son
En el cine las palomitas
El calor para los raspados
Chocolate de la abuelita
Para él frío del corazón
Picosita la vida
Dulcecito él amor
Sonrisitas de nieve
Que me regalen un rayito de sol
Arrocito con leche
Pa’ vivir
Para darle sabor a todo lo que de pronto
Se queda triste, se queda solo
Uoh, uoh…
Quiero un mundo de caramelo
Donde todo sepa mejor
Y esa niña que llevo dentro
Se me escape del corazón
Pa’ que jueguen con sus amigos
Y se ría con todo él mundo
Que la risa de todos los niños
És la musica del amor
Hazme un mundo de caramelo
Llena él aire com algodón
Que los dulces caigan del cielo
Las estrellas piñatas son
De repente las alegrías
Se me antojan de corazón
Sí me como a besos la vida
Chocolates los sueños son




[Mundo de caramelo chords][Mundo de caramelo cifra]
© LaCuerda.net · aviso legal · privacidad · es · en · pt · contacto