Acordes de Guitarra » D »Danilo Montero » Todopoderoso (Tab)

Todopoderoso
Danilo Montero

Letras, Notas, Punteos, Tablaturas y Acordes de Guitarra (Tabs & Chords)

  • Letra y Acordes
      |         Bm           | E |         Bm            | E
    e)|----------------------|---|-----------------------|
    B)|-----------7----------|---|----------7------------|
    G)|-----7---7---7---7----|---|----7---7---7---7------|
    D)|-7-9---9-------9---9-9|---|7-9---9-------9---9-9--|
    A)|----------------------|---|-----------------------|
    E)|----------------------|---|-----------------------|
    
    
       Bm                  G
    La única Razón de mi adoración
    D             A
    Eres tú mi Jesús
       Bm             G
    El único motivo para vivir
    D              A(la segunda vez se pone F#)
    Eres tú Mi Señor
    
          Bm          G
    Mi única verdad esta en Ti
    
  • Tablatura
    esta es mi primera trascripcion en atame desde hace tiempo que keria darla 
    pero se me borro
    espero que les guste
    
    todo poderoso el mas parecido que los otros tab
    
    INTRO:
    e|-----------------------------
    B|------------7----------------
    G|------7\4/7---7\4/7----------
    D|--7/9---------------9-7-9----
    A|------------------------9----
    E|-----------------------------
    EL INTRO SON EL TAB DE ARRIBA y EL DE 
    ABAJO SE TOCAN UNA SOLA VEZ
    
    e|-----------------------------
    B|------------7----------------
    G|------7\4/7---7\4/7----------
    D|--7/9---------------9-7-9-9---
    A|------------------------9-9---
    E|-----------------------------
    
    e|------------------|---------------------
    B|------5-----------|------5--------------
    G|--------7--3VECES-|--------6---esto es el final
    D|----7-------------|----7-------en la parte 'y mi salvacion'
    A|--5---------------|--5------------------
    E|------------------|-------------------
    EN LA PARTE DE LA CANCION 'MI UNICA VERDAD ESTA EN TI 
    ERES MI
  • Tab p/Bajo
    OJO QUE ES LA VERSION REMIX DE LA CANCION , NO DE LA NORMAL
    es la primra cancion que la saco a oido
    y creo que esta mejor que las demas,
    spero que les sirva auds. y a sus comunidades
    estas lineas "|",la verdad no se par que es,
    las tomo como un mometo de spera largo,
    y los numeros los pongo con una separacion
    que yo veo conveniente
    no utilizo trastes mayores al 10, prefiero bajar subir en cuerdas,
    asi que si ven numeros seguidos como 12 o 11
    quiere decir que se repiten 1-1, de manera rapida
    la verdad no espero les guste o no¡
    spero que este bien
    jiji, bueno q tb les guste
    
    intro
    
    A|---------3-|-----------------|
    E|-2--4--5---|-5--7--9--7--8-7-|
    D|-----------|-----------------|
    G|-----------|-----------------|
    
    E|---------3-|------------|
    A|-2--4--5---|-5--7--9--7-|
    D|-----------|------------|
    G|-----------|------------|
    
    estrofa
    
    E|-----------3-3-3-03-|--------------------|
    A|-2-2-2-020----------|-------2-2-0-0-0-00-| x2
    D|--------------------|-0-0-0--0-----------|
    G|-----------------
  • +
    ¡Colabora con nosotros!
    Envíanos tu versión de esta canción

Letra de Todopoderoso
La única Razón de mi adoración
Eres tú mi Jesús
El único motivo para vivir
Eres tú Mi Señor
Mi única verdad esta en Ti
Eres mi luz y mi salvación
Mi único amor eres Tu Señor
Y por siempre te alabaré
Tu Eres Todo poderoso
Eres Grande y Majestuoso
Eres Fuerte e Invencible
Y no hay nadie como Tú
Se vuelve a repetir todo y luego:
Eres Todo poderoso
Eres Grande y Majestuoso
Eres Fuerte e Invencible
Y no hay nadie como Tú



© LaCuerda.net · Aviso Legal · Privacidad