Acordes de Guitarra » D »Danilo Montero » Es Jesús (Tab)

Es Jesús
Danilo Montero

Letras, Acordes y Tabs para Guitarra, Bajo y Ukulele

  • SOL              MIm
    A aquel que nos amó
    
             DO        RE
    testigo fiel exaltaré
    
    SOL                   MIm
    Al que es principio y fin
    
                DO      RE
    Al gran yo soy adoraré.
    
    
    SOL           RE
    A Jesús mi Señor
    
        DO         
    Resplandor de la gloria de Dios
    
    SOL              RE
    
  • ola amigos hermanos, aki les mando  el solo de esta cancion
    muy hermosa... creo que el otro tab tiene algunos errores
    bueno aki les mando saludos y bendiciones si le hacen arreglos
    mandenme a mi correo saint-kj@msn.com!!! agregenme para
    compartir tabs cristianos bye salu2
    
    (2:17)
    e------------12/15-17-19~----17-----------------------------/
    b------12/15--------------------20-19-17~-------------------/
    g-----------------------------------------------------------/
    d-----------------------------------------------------------/
    a-----------------------------------------------------------/
    e-----------------------------------------------------------/
    
    (2:20) lo que esta entre parentesis(*)se hace con una tecnica
    llamada bendup que consiste en levantar la cuerda un poco.
    lo que ta entre corchaas [] hacerlo rapido.
    e-----------------------------------------------------------/
    b-----------------------------------------------------------/
    g------(19)19----16-16h17-16----------16-17-16-----------
  • e|---------------------------------------------------------------------|
    B|---------------------------------------------------------------------|
    G|---------------------------------------------------------------------|
    D|---------------------------------------------------------------------| X3
    A|-------------3---5---2-----------------------------------------------|
    E|-0---2---3-----------------------------------------------------------|
    
    
       02:10               02:18
    e|---------------------------12h14-15-17b18--17-15------------------------------|
    B|---------------------12h14-----------------------17--15-17-15-----------------|
    G|------------------------------------------------------------------------------|
    D|---------------------------------------------------------------10s12-13-12-10-| 
    A|-------------3----------------------------------------------------------------|
    E|-0---2---3--------------------------------------------------------------------|
    Siempre te exaltaré...
    
    
    
    e|------------------------------10s12--10-12s14--12-14h15-14--12-------|
    
  • +
    ¡Colabora con nosotros!
    Envíanos tu versión de esta canción

Letra de Es Jesús
A aquel que nos amó
testigo fiel exaltaré
Al que es principio y fin
Al gran yo soy adoraré.
A Jesús mi Señor
Resplandor de la gloria de Dios
A Jesús mi gran Rey
Alabanza y honra daré
Siempre te amaré
Siempre te adoraré
Siempre te cantaré
Siempre te exaltaré
y se repite el coro: a Jesús...-




[Es Jesús chords][Es Jesús cifra]
© LaCuerda.net · aviso legal · privacidad · es · en · pt · contacto