Acordes de Guitarra » D »Danilo Montero » Es el rey (Tab)

Es el rey
Danilo Montero

Letras, Acordes y Tabs para Guitarra, Bajo y Ukulele

  • Bueno esta es mi version que suena mas chida que las que estan-.-
    ojala la sepan tocar por que creo que asi es....100%seguro..
    bueno disfrutenla y toquenla chido mi msn es bggs15@hotmail.com dudas
    o algo asi...
    Coatza rulezz....kokito
    
    Verso:
        Em           C             Em          C
    G -------------------------------------------------------
    D --2-2-----2------------------2-2-----2-----------------
    A ------0h2------3-3-----3---------0h2-----3-3-----3-----  x2
    E -------------------0h3-----------------------0h3-------
    
         Em           C             G           D
    G -------------------------------------------------------
    D --2-2-----2----3-3-----3----5-5-----5------------------
    A ------0h2----------0h3----------3h5-----5-5-----5—7-5--
    E --------------------------------------------3s5--------
    
    
    Coro:
         Em             C               G        D
    G -------------------------------------------------------
    D --2-2-----5---------------5----------------------------
    A ------2s5---5-----3-3—
  • Hola, la verdad no se que tablatura hicieron los amigos que
    intentaron sacar esta canción, creo que la habrán sacado cuando
    estaban zombis jajajaj porque no me parece, bueno aquí les mando
    la verdadera tablatura de esta canción y les aseguro que esta en
    un 95% segura, solo por la 2da.parte del slap que no me cuadra
    bien; se necesita un bajo de 5 cuerdas para q suene bien
    chévere, bueno hasta luego amigos y que Dios los bendiga :)
    
    (h:hammer; s:slide)
    :Intro: Teclado y guitarra
    
    :Estrofa:
    El es el Rey infinito...
    
    G:----------:----------:
    D:----------:----------:
    A:----------:---------3:                    (x3)
    E:----------:5-5--3h5--:
    B:5-5--5h3-5:----------:
    
    Pues mi vida compró...
    
    G:----------:----------:
    D:----------:----------:
    A:----------:-------0h5:
    E:3-3--3h0-3:----------:
    B:----------:3-3—-3----:
    
    :Coro:
    :(a) El es el Rey,...
    
    G:---------:--------:-------:-------:
    D:---------:--------:-------:-------:
    A:7--7s10s5:3--5s7s5:-------:5-5-5-5:       (x2)
    E:---------:-------
  • +
    ¡Colabora con nosotros!
    Envíanos tu versión de esta canción






[Es el rey chords][Es el rey cifra]
© LaCuerda.net · aviso legal · privacidad · es · en · pt · contacto