Tablatura para Bajo de Danilo Montero: Eres Todopoderoso
Conexión · Inscripción
Letras y Acordes
Pantalla Completa
Imprimir
Versión Texto
Añadir Favorito
Otras Versiones

Mostrar Diagramas
Desfile Automático
Formato del Texto


Danilo Montero
Eres Todopoderoso(BAJ)
calidad:
dmon0044
AUTOR: ???
ALBUM: desconocido
Enviado por Giovanni
    Aqui les va esta rola, hice algunas modificaciones y espero que
la puedan adaptar;se oye muy padre y ojalá les guste... va...


::Intro::

E |-----------3---5------------------------------3---5--------------
A |-2---2--------------2---2---------2---2---------------2----2-----
D |-----------------------------------------------------------------
G |-----------------------------------------------------------------
B |-----------------------------------------------------------------



::Verso::

E |--------------------5----3---3------------------7---5---5---------------------5---3---3------------------7---5---5---
A |---2----2----2--------------------5---5---5------------------2---2---2--------------------5---5---5------------------
D |---------------------------------------------------------------------------------------------------------------------
G |---------------------------------------------------------------------------------------------------------------------
B |---------------------------------------------------------------------------------------------------------------------




E |--------------------5----3---3------------------7---5---5---------------------5---3---3------------------7--5-5-5-5-5--
A |---2----2----2--------------------5---5---5------------------2---2---2--------------------5---5---5--------------------
D |-----------------------------------------------------------------------------------------------------------------------
G |-----------------------------------------------------------------------------------------------------------------------
B |-----------------------------------------------------------------------------------------------------------------------



::Coro::

E |---------------------------------3-----3-------3-------3-------------------------------------5----5----------------------5--
A |--2---2-------2-------2-------------------5-------5------------5---5-------5-------5------------------7-----------7---------
D |-----------4-------4----------------------------------------------------7-------7---------------------------5s7-------------
G |----------------------------------------------------------------------------------------------------------------------------
B |----------------------------------------------------------------------------------------------------------------------------


::Puente::

E |-----------------------------------3------------------------3-----------------------------------5----5----------------------5--
A |--2------------------------2----------5--------------------------5-----5--------5--------5--------------7-----------7----------
D |------4------------------------------------5---5s7---5---------------------7--------7-----------------------5s7----------------
G |----------4—-4s7----4----------------------------------------------------------------------------------------------------------
B |-------------------------------------------------------------------------------------------------------------------------------




E |---------------------------------3------------------------3--------------------------------------5--5--5--5--5-
A |--2----------------------2----------5--------------------------5-----5--------5--------5-----------------------
D |------4----------------------------------5---5s7---5---------------------7--------7----------------------------
G |----------4—-4s7----4------------------------------------------------------------------------------------------
B |---------------------------------------------------------------------------------------------------------------

     
               Comentarios, dudas y aclaraciones; ya saben solo mandeun un mail...

                         G O D  B L E S S  Y O U  ! ! !
Este fichero es trabajo propio de su transcriptor y representa su interpretación personal de la canción. El material contenido en esta página es
para exclusivo uso privado, por lo que se prohibe su reproducción o retransmisión, así como su uso para fines comerciales.
© LaCuerda.net · Aviso Legal · Privacidad