Acordes de Guitarra » D »Danilo Montero » Bendito Jesús (Tab)

Bendito Jesús
Danilo Montero

Letras, Acordes y Tabs para Guitarra, Bajo y Ukulele

  • Intro: B - F# - G#m - F# - E
    
    
    B               F#                  G#m
    Por tí es mi clamor, y sin ningun temor
                     F#      E      B
    En tí puedo confiar, Bendito Jesús
                    F#                G#m
    Hoy puedo escuchar, tú voz de sanidad
                    F#      E      B   F#
    Restaurando mi ser, Bendito Jesús
    
    B             F#             G  G#m
    Mi deseo eres tú, mi momento de amor
            F#        E             B
    La alegria de vivir, Bendito Jesús.
                       F#               G     G#m
    Eres mi fuente de amor, eres aire, y eres sol
          F#          E              G#m
    El latir del corazón, Bendito Jesús.
    
  • E.-11-11-11---------11-9-9-9-9-------
    B------------12----------------12-11-7-12-12-12-12
    G---------------11
    
    E.-9-11---------12--12--11-
    B-------12-9------12------12-
    
    
    
    B               F#                 G#m
    Por tí es mi clamor, y sin ningun temor
                     F#      E        B
    En tí puedo confiar, Bendito Jesus
                    F#                G#m
    Hoy puedo escuchar, tú voz de sanidad
                    F#        E       B   F#
    Restaurando mi ser, Bendito Jesús
    
    B             F#             G#/G G#m
    Mi deseo eres tú, mi momento de amor
    
  • Intro:  B F# G#m E
    
    B               F#                 G#m
    POR TI ES MI CLAMOR Y SIN NINGÚN TEMOR
                    F#     E       B
    EN TI PUEDO CONFIAR BENDITO JESÚS
                    F#               G#m
    HOY PUEDO ESCUCHAR TU VOZ DE SANIDAD
                    F#     E       B    F#
    RESTAURANDO MÍ SER BENDITO JESÚS
    
    B              F#                 G#
    MI DESEO ERES TÚ, MI MOMENTO DE AMOR
                     E              B
    LA ALEGRÍA DE VIVIR BENDITO JESÚS
                        F#                   G#m
    ERES MI FUENTE DE AMOR, ERES AIRE Y ERES SOL
                      E              B
    EL LATIR DEL CORAZÓN, BENDITO JESÚS
              F#         G#m   E
    
  • INTRO "BENDITO JESUS"
    
    e-----------------------------------------------------------------------
    B-14s16-16-16-16------16-16s14-14-14-14-14------------------------------
    G---------------16-------------------------16-15----15s16-15s16-16-16-16
    D-----------------16-----------------------------16---------------------
    
    e---------------------------------
    B-14s16-----14s17-17-17-17-16s12--
    G------16313----------------------
    D---------------------------------
    
    SOLO
    
    e-----------------------------------------------------------------------
    B----16-14----------16-14-16-14---16-14----------16-14-16-14---16v------
    G-13v------16-15-13------------13v------16-15-13------------13v----13v--
    
    
    Espero que sea de bendicion para tu vida
    v: vibrato
    s: slide
    
    BENDICIONES DESDE COSTA RICA, PURA VIDA.... MARCO TORRES.
    ME PUEDEN BUSCAR EN YOUTUBE CON EL NOMBRE DE MATTORE85 AHI
    ENCONTRARAN
    ESTA TAB EN VIDEO Y MUCHOS MAS VIDEOS...BENDICIONES
  • e-11-11-11-11-------11---------------------------------
    B-------------12-------14---14-14-14-14-12-11---12-----
    G----------------11--------------------------11--------
    D------------------------------------------------------
    A------------------------------------------------------
    E------------------------------------------------------
    
    e----------------11---------12----12-11----------------
    B-12-12-12-12-14----12---------12-------12-------------
    G----------------------13-13---------------------------
    D------------------------------------------------------
    A------------------------------------------------------
    E------------------------------------------------------
    
    B               F#                 G#m
    por ti es mi clamor, y sin ningún temor
        E           F#    E         B
    en ti puedo confiar, bentido Jesús
                    F#                 G#m
    hoy puedo escuchar, tu voz de sanidad
    
  • +
    ¡Colabora con nosotros!
    Envíanos tu versión de esta canción
  • Tutorial
    HD
    Bendito Jesus Danilo Montero Tutorial de Bajo
    12:01
  • Tutorial
    Bendito Jesús Danilo Montero - Bajo
    4:03

Letra de Bendito Jesús
Por tí es mi clamor, y sin ningun temor
En tí puedo confiar, Bendito Jesús
Hoy puedo escuchar, tú voz de sanidad
Restaurando mi ser, Bendito Jesús
Mi deseo eres tú, mi momento de amor
La alegria de vivir, Bendito Jesús.
Eres mi fuente de amor, eres aire, y eres sol
El latir del corazón, Bendito Jesús.
Bendito amor de mi Señor.
Tú gracia y favor, conmigo puedo ver
Llenando hoy mi ser, Bendito Jesús.
Y hoy mi voluntad, se rinde a tu verdad
Tú amor y tu bondad, Bendito Jesús.
Mi deseo eres tú, mi momento de amor
La alegria de vivir, Bendito Jesús.
Eres mi fuente de amor, eres aire y eres sol
El latir del corazón, Bendito Jesús
Bendito amor de mi Señor.
Bendito amor de mi Señor.




[Bendito Jesús chords][Bendito Jesús cifra]
© LaCuerda.net · aviso legal · privacidad · es · en · pt · contacto