Acordes de Guitarra » D »Daniel F » El hombre que no podia dejar de masturbarse (Tab)

El hombre que no podia dejar de masturbarse
Daniel F

  • Letra y Acordes
        Em*     Am/Em
    
    E------------------
    B------------1-----
    G------------------
    D---2--------------
    A------------2-----
    E---2--------------
    
    
    intro
    
                         G                      G            Am   G
    
    E-------------------3----------------------3-------------0----3--------
    B-------------------3----------------------3-------------1----3--------
    G-------------------3----------------------3-------------2----3--------
    D-------------------3--4-------------------3--4----------2----3-4------
    A-------------------3--5-------------------3--5----3--2--0----3-5------
    E----3--2--0--2--5--3--5----3--2--0--2--5--3--5----------0----3-5------
    
  • +
    ¡Colabora con nosotros!
    Envíanos tu versión de esta canción

Letra de El hombre que no podia dejar de masturbarse
Cuando Octubre cayó sobre sus ojos
se agotaron los días de verme en enojos
Caminaba entre islas sin puerto seguro
como ciegos ke miran de reojo el futuro
Ke nadie me apague la luz,para poder ver sus ojos
ke nadie me apague la luz,para poder ver la luz de su luz
y la luz de su luz de esa su luz
Soñaré ke sueñas un sueño indiscreto
ke despierta en secreto en un pueblo remoto
kon el pliegue de invierno ke viene de costado
kon el miedo agazapado y con el santo en alboroto
Ke nadie me apague la luz,para poder ver sus ojos
ke nadie me apague la luz,para poder ver la luz de su luz
y la luz de su luz de esa su luz
kiero estar en todas, embriagarte a solas
kiero enterarme de tus pasos, incluso de akellos ke no son exaktos
kiero violentarte, y cada noche explorarte
y ser el único perro ke te ladre,ke te muerda, y ke logre atraparte
Desearé ke tu viento no traiga un reposo (ni uno solo)
controlarte deseoso, soy un viejo celoso (mañoso, morboso)
Y es por eso ke kiero -a veces- amarrate (anudarte...)
y es kontigo ke kiero hasta el fin masturbarme...mmmm
Ke nadie me apague la luz, para poder ver sus ojos (¡ Y todo lo demás!)
ke nadie me apague esa luz
para poder ver la luz de su luz
y la luz de su luz de esa su luz
Cuando mis ojos cayeron en esos tus ojos
esta cancion ba dedicada a una amiga k la quiero mucho



© LaCuerda.net · aviso legal · privacidad · contacto