Acordes de Guitarra » D »Damas Gratis » El humo de mi fasito (Tab)

El humo de mi fasito
Damas Gratis

Letras, Acordes y Tabs para Guitarra, Bajo y Ukulele

  • Am
    Quiero ponerme a beber
    Dm
    y un alto faso fumar
    G
    por la mujer que mato 
           C                Am
    mi sentimiento ire a buscar.
    
    Punteo:
    1|-4-----4-----4-4-4-|-4-----4-----4-4-4-|-6-----6-----6-6-6-|---------------------|
    2|-----4-----4-------|-----5-----5-------|-----5-----5-------|-5-4-2-2-0-0-4-2-0---|
    3|---4-----4---------|---6-----6---------|---6-----6---------|-------------------3-|
    4|-------------------|-------------------|-------------------|---------------------|
    5|-------------------|-------------------|-------------------|---------------------|
    6|-------------------|-------------------|-------------------|---------------------|
    
    1|-4-----4-----4-4-4-|-4-----4-----4-4-4-|-6-----6-----6-6-6-|---------------------|
    2|-----4-----4-------|-----5-----5-------|-----5-----5-------|-5-4-2-2-0-0-4-2-0---|
    3|---4-----4---------|---6-----6---------|---6-----6---------|-------------------3-|
    
  • Am
    Quiero ponerme a beber
    Dm
    y un alto faso fumar
    G
    por la mujer que mato
           C                E
    mi sentimiento ire a buscar.
    ----|
    6|----------------|
    
    Am
    Quiero ponerme a beber
    Dm
    y un alto faso fumar
    G
    por la mujer que mato
           C                E
    mi sentimiento ire a buscar.
    
    
  • Am
    Quiero ponerme a beber
    Dm
    y un alto faso fumar
    G
    por la mujer que mato
           C                E
    mi sentimiento ire a buscar.
    
    1|5--5--5-5-5|5--5--5-5-5|7--7--7-7-7|-----------------|
    2|--5--5-----|--6--6-----|--6--6-----|6-5-3-3---5-3----|
    3|-5--5------|-7--7------|-7--7------|--------5-----5-4|
    4|-----------|-----------|-----------|-----------------|
    5|-----------|-----------|-----------|-----------------|
    6|-----------|-----------|-----------|-----------------|
    
    1|5--5--5-5-5|5--5--5-5-5|7--7--7-7-7|-----------------|
    2|--5--5-----|--6--6-----|--6--6-----|6-5-3-3---5-3----|
    3|-5--5------|-7--7------|-7--7------|--------5-----5-4|
    4|-----------|-----------|-----------|-----------------|
    
  • +
    ¡Colabora con nosotros!
    Envíanos tu versión de esta canción

Letra de El humo de mi fasito
Quiero ponerme a beber
y un alto faso fumar
por la mujer que mato
mi sentimiento ire a buscar.
Punteo:
Quiero ponerme a beber
y un alto faso fumar
por la mujer que mato
mi sentimiento ire a buscar.
No, no debiste jugar
con mi tonto corazon
lo que hiciste con mi amor
algun dia lo vas a pagar.
No estoy triste,
no es mi llanto,
es el humo de este fasito
que me hace llorar.
Quien te crees,
una diosa,
flor hermosa que algun dia
te marchitaras, siii.
Punteo
Quiero ponerme a beber
y un alto faso fumar
por la mujer que mato
mi sentimiento ire a buscar.
No, no debiste jugar
con mi tonto corazon
lo que hiciste con mi amor
algun dia lo vas a pagar.
No estoy triste,
no es mi llanto,
es el humo de este fasito
que me hace llorar.
Quien te crees,
una diosa,
flor hermosa que algun dia
te marchitaras, siii.
No estoy triste,
no es mi llanto,
es el humo de este fasito
que me hace llorar.
Quien te crees,
una diosa,
flor hermosa que algun dia
te marchitaras.
No estoy triste.




[El humo de mi fasito chords][El humo de mi fasito cifra]
© LaCuerda.net · aviso legal · privacidad · es · en · pt · contacto