Tablatura para Bajo de Cultura Profética: Mi Balcón
Conexión · Inscripción
Letras y Acordes
Pantalla Completa
Imprimir
Versión Texto
Añadir Favorito
Otras Versiones

Mostrar Diagramas
Desfile Automático
Formato del Texto


Mi Balcón(BAJ)

Cultura Profética

calidad:
cpro0302
AUTOR: Cultura Profetica & Vicente Garcia
ALBUM: desconocido (2011)
Enviado por Ariel
Esta es mi primera tablatura, espero que les guste.
Cualquier dura me pueden escribir a koranangel@gmail.com


Intro

G|-4--------------------------------------------------------------------5---|
D|----5---------5---------5-----------------5---------------------5--7----7-|
A|---------7---------7------------3---3----------3-----------7--------------|
E|--------------------------------------------------------5-----------------|


G|------------------2-------------------------------------------------------|
D|----------------------3---2-----------------------------------------------|
A|------------------------------5--5----------5------8--7---------------6---|
E|-5--5-5-5----3-----------------------5-5--------5--------8---4-4---4----6-|



Tu amor se esconde en mi locura y hoy descubrimos el secreto,

G|--------------------------------------------------------------------------|
D|---------------------------------------------2------------2-----------2---|
A|-3-----------------3----------------3-----------2-2-2-------2---2-2-----2-|
E|-----3---0----3-------3-----0---3-----3-----------------------------------|

que eres el centro de mi universo, cada vez que sueño con tus besos

G|-------------------------------------------------------------------------|
D|------------------------------------------------6-6-6------6-------6-5---|
A|--5-----------5-----------------5---------8------------8-----8-8---------|
E|------5-5-5------5------5-5-------5--------------------------------------|


Me Ilumina un sentimiento   wow ouo wow

G|-----------------------------------------------------------5---2---5---2-|
D|-----------------------------------------------------2-------------------|
A|----3---------------3----------------3-----------------------------------|
E|---------3--0--3-------3---0--3----  ---3------0-------------------------|

wow wuw ooo, aaa   aa
G|-------------------------------------------------------------------------|
D|-------------------------------------------------------------------------|
A|------------------5------5-------------5-----8--7---------------------6--|
E|---5---5-5-5---3----5-5-----5---5-5-------5--------8---4--4--4--4--6-----|


Coro X3

Si fuera la última noche entre tu fantasía y la mía


G|-4---------------------------------------------------------------------5-|
D|-----5---------5---------5----------------5------------------5--7----7---|
A|----------7---------7-----------3---3----------3--------7----------------|
E|-----------------------------------------------------5-------------------|

difícil de entender, que lo sueños se me ahoga en silencio

G|----------------2-------------------------------------------------------|
D|--------------------3---2-----------------------------------------------|
A|----------------------------5--5----------5------8--7---------------6---|
E|---5--5-5-5--3-----------------------5-5------5--------8---4-4---4----6-|


vivir la pasión del momento sentir tu cuerpo siguiendo mi aliento
sin nada que esconder, al infinito te llevare…



Verso X2

Tu amor es pura desmesura,
psicoanaliza mis deseos,
voy saboreando lo perfecto vez,
cada vez que sueño con tus beso,
me ilumina un sentimiento...

wow ouo wow
wuw ooo
wow wuw ooo
aaa
aaa


Puente
G|----------------------------------------------------------------------|
D|----------------------------------------------------------------------|
A|------------------------3----5-5---5-5-5----(X3)--------------3--5--3-|
E|---5--5--4--3-----3-3------------------------------1--4--4------------|




(X3)

Cada vez que sueño con tus besos me ilumina un sentimiento,
viviremos para amarnos hasta el final
G|-----------------------------------------------------------------------|
D|-----------------------------------------------------------------------|
A|-----3------3-------------------------2--3--3--------------------------|
E|-3------3-------3---0----0---5-----5-----------1-1---1---1--1-----3-3--|


mira que pura desmesura y analizo mis deseos
donde soñé tantas veces tus besos sintiendo mi amor
cada vez que sueño con tus besos me ilumina un sentimiento
Tu amor se asoma frente a mi balcón, corazón, zon, eehh…




Troompetas (X3)

G|--------------------------------------------------------------------|
D|--------------------------------------------------------------------|
A|-----------------------3--3---3-------------------------------------|
E|------5-55--5---------------------------1--1---1------------3--3--3-|



(X3)

cada vez que sueño con tus besos me ilumina un sentimiento dentro,
mira que es pura desmesura y analiza mis deseos, tus besos...

G|----------------------------------------------------------------------|
D|----------------------------------------------------------------------|
A|-----3------3--------------------------2--3--3------------------------|
E|-3------3-------3---0---0---5---5----------------1-1---1---1--1---3-3-|

Yo me dedico a ver la luna, desde mi balcon

G|--------------------------------3/4-----------------------5/7----5\3-|
D|---------------------------------------5----------5------------------|
A|---------------------------------------------7-----------------------|
E|-----1----3--4-------------------------------------------------------|
Este fichero es trabajo propio de su transcriptor y representa su interpretación personal de la canción. El material contenido en esta página es
para exclusivo uso privado, por lo que se prohibe su reproducción o retransmisión, así como su uso para fines comerciales.

© LaCuerda.net · Aviso Legal · Privacidad