Acordes de Guitarra » C »Cuitla Vega » Como Ella (Tab)

Como Ella
Cuitla Vega

Letras, Acordes y Tabs para Guitarra, Bajo y Ukulele

  • Intro    A   E/G#   F#m    E      D     A/C#      Bm7   E
    
    
        Asus2                  C#m7
    Entiende necio corazón, que no vez que le haces daño,
       D                         E                    D
    déjala vivir en paz, vete a molestar a otro lado.
    
       Asus2                    C#m7
    Tuviste tu oportunidad, pero la tiraste a la basura,
       D                                 E
    ella se debe enamorar, de quien la trate con ternura.
    
    PRECORO
          Bm7               E
    De patanes, ya se ha cansado,
           D              E  /E /F# /G# /B /E
    tu lugar, ya está ocupado.
    
    CORO
    
  • INTRO:   G    Bm    C     D
    
    G                           Bm
    Entiende necio corazón que no vez que le haces daño
    C                             D                 C9   D
    déjala vivir en paz vete a molestar a otro lado.
      G                              Bm
    Tuviste tu oportunidad pero la tiraste a la basura
    C                                   D
    ella se debe enamorar de quien la trate con ternura.
     C        Am7            D     C9                   D   C9  D
    De patanes ya se ha cansado, tu lugar ya esta ocupado.
    
    CORO:
    
                G
    Ella tiene derecho de tocar las estrellas
                      Bm                       C              D  C9
    de que alguien le diga cosas tan bellas, como ella, como ella.
     D             G
    
  • INTRO: Asus2-C#m-D-E
    e-------------------------/--------------------------------------
    b----5-3-2-3-2--2-2-------/--3h5-5-5-3-2-2h3-2----3-2------------
    g--4----------------4-2-4-/---------------------------2-2h4-2----
    d-------------------------/--------------------------------------
    a-------------------------/--------------------------------------
    e-------------------------/--------------------------------------
    
    e--------------/---------0h2-0-------------------
    b--0-2-2-3-----/--2-3-5--------0h2-0-------------
    g----------2---/---------------------------------
    d--------------/--------------------------------------
    a--------------/--------------------------------------
    e--------------/--------------------------------------
    
    
    Asus2                  C#m
    Entiende necio corazón que no vez que le haces daño
    D                   E
    déjala vivir en paz vete a molestar a otro lado.
    
  • +
    ¡Colabora con nosotros!
    Envíanos tu versión de esta canción

Letra de Como Ella
Entiende necio corazón, que no vez que le haces daño,
déjala vivir en paz, vete a molestar a otro lado.
Tuviste tu oportunidad, pero la tiraste a la basura,
ella se debe enamorar, de quien la trate con ternura.
PRECORO
De patanes, ya se ha cansado,
tu lugar, ya está ocupado.
Ella tiene derecho de tocar las estrellas,
de que alguien le diga, cosas tan bellas, como ella, como ella.
No estorbes su camino y déjala que vuele,
le has golpeado el alma y no creo que encuentres,
alguien como ella, como ella.
Has metido la pata, y ha llorado un ángel, como ella.
PRECORO
Has metido la pata, y ha llorado un ángel, como ella,
como ella.




[Como Ella chords][Como Ella cifra]
© LaCuerda.net · aviso legal · privacidad · es · en · pt · contacto