Acordes de Guitarra » C »Cuatro Puertorriqueño » Danza violeta (Tab)

Danza violeta
Cuatro Puertorriqueño

Letras, Acordes y Tabs para Guitarra, Bajo y Ukulele

  • Danza Violeta  (SOL )
    
    1ra - 2da - 3ra - 4ta - 5ta
    SOL-G RE-D  LA-A  MI-E  SI-B
    
    Introducción
    
    G|---------|-4-5-4-2-1-4-2-2---2-|-0-0---------|-------------|--------|
    D|-------0-|-----------------2---|-----4-4---4-|-2-2-0-0---0-|------0-|
    A|-2-3-4---|---------------------|---------3---|---------4---|-2-3-4--|
    E|---------|---------------------|-------------|-------------|--------|
    B|---------|---------------------|-------------|-------------|--------|
    
                                                      
    Rasgado RE                                          
    G|--4-5-4-2-1-4-2---4-4-2---2-2-0---------------|-----2---------------|
    D|----------------2-------2---------2-0---------|---------------------|
    A|--------------------------------2-----0-3-2---|-----3---------------|
    E|--------------------------------------------3-|-----2---------------|
    B|----------------------------------------------|---------------------|
    
  • +
    ¡Colabora con nosotros!
    Envíanos tu versión de esta canción

Letra de Danza violeta
1ra - 2da - 3ra - 4ta - 5ta
Introducción

Rasgado RE

Melodía 1ra parte
2da parte
3ra parte

Finalizar con la segunda parte luego de la repetición.




[Danza violeta chords][Danza violeta cifra]
© LaCuerda.net · aviso legal · privacidad · es · en · pt · contacto
DINAMICO