Acordes de Guitarra » C »Cuatro Puertorriqueño » Villancico Yaucano (Tab)

Villancico Yaucano
Cuatro Puertorriqueño

Letras, Acordes y Tabs para Guitarra, Bajo y Ukulele

  • G
    Quisiera, niño, besarte
    
    E7                Am
    y San José no me deja,
    
    C        [C#dim6]    G
    dice que te haré llorar,
    
    D7                     G
    verdad que aun así me dejas?
    
    
    
    G
    Ha nacido en un portal,
    
    E7              Am
    llenito de telarañas,
    
    
  • SOL-G RE-D  LA-A  MI-E  SI-B
    
    
    
    G|--------------------------0------------------------0-------------|
    D|-----------0---2-2--2-1-2---3-2-2----------0---------------------|
    A|-----0-2-3---3--------------------0--0-2-3---3-0-----------------|
    E|---3---------------------------------------------3---------------|
    B|-----------------------------------------------------------------|
    
    
                                                                
                                                                
    G|---2---0-----------------------------------0---------------------|
    D|-----2---3---2-0------------0---2-2--2-1-2---3-2-2---------------|
    A|-----------0-----3----0-2-3---3--------------------0-------------|
    E|--------------------3--------------------------------------------|
    B|-----------------------------------------------------------------|
                                                                       
    
    
  • +
    ¡Colabora con nosotros!
    Envíanos tu versión de esta canción

Letra de Villancico Yaucano
Quisiera, niño, besarte
y San José no me deja,
dice que te haré llorar,
verdad que aun así me dejas?
Ha nacido en un portal,
llenito de telarañas,
entre la mula y el buey,
el Redentor de las almas.
En Belén tocan a fuego,
del portal sale una llama,
es una estrella en el cielo
que ha caído entre las pajas.
Yo soy un pobre yaucano
que vengo de Yauco aquí,
y a mi niño Dios le traigo
un gallo quiquiriquí.
Ya lo sabes, niño hermoso,
soy del pueblo del café
por si quieres dos saquitos,
yo también te los traeré.
Yo soy Juan el verdulero,
que vengo de la montaña
y te traigo viandas buenas,
desde mi humilde cabaña.
Al niño recien nacido
todos le ofrecen un don;
yo, como no tengo nada,
le ofrezco mi corazón.




[Villancico Yaucano chords][Villancico Yaucano cifra]
© LaCuerda.net · aviso legal · privacidad · es · en · pt · contacto
DINAMICO