Acordes de Guitarra » C »Los Cuates de Sinaloa » La Polvadera (Tab)

La Polvadera
Los Cuates de Sinaloa

Letras, Acordes y Tabs para Guitarra, Bajo y Ukulele

  • A             E7                         A
    Etas Noche Me Voy Al Baile A Levantar Una Polvadera...
    A             E7                         A
    Etas Noche Me Voy al baile A Levantar Una Polvadera...
    D                 A                 E7           A
    Porque Van A Estar Los Cuates Tocando La Canelera...
    D                 A                 E7           A
    Porque Van A Estar Los Cuates Tocando La Canelera...
    
    A                E7                   A
    Le Tocaron Un Beso Al Viento Me Puse Romanticon.....
    A                E7                   A
    Le Tocaron Un Beso Al Viento Me Puse Romanticon......
    D             A          E7           A
    Y Con Este Zapateado Se Me Alegra El Corazon....
    D             A          E7           A
    Y Con Este Zapateado Se Me Alegra El Corazon.....
    
    A             E7                                  A
    Cuando Tenia Ganas De Verte Fui A Tu Casa Y Tu No Estabas...
    
  • D/--2-0---0-----------------
    A/------4--4-2-4-2-0-2-0---0
    E/-----------------------4--
    
           A                           E7
    e/-----5-5-4-5--0-0-5-5-4-5--0-0-5-5-4-5-4-2-4-2-0-2-0-----
    B/--5-5------------------------------------------------3-5-
          A                         E7
    B/------5-5-3-5-----5-5-3-5-----5-5-3-5-3-2-3-2-0--
    G/--4-4---------4-4---------4-4-------------------2
    
    
    Otra vez lo mismo
    
    e/-----5-5-4-5--0-0-5-5-4-5--0-0-5-5-4-5-4-2-4-2-0-2-0-----
    B/--5-5------------------------------------------------3-5-
    
    B/------5-5-3-5-----5-5-3-5-----5-5-3-5-3-2-3-2-0--
    G/--4-4---------4-4---------4-4-------------------2
    
    
  • A)
    e|-12-10-9-10-9---9------------------5----------------------|
    B|--------------12-12-10-12-10-9-10--5----------------------|
    G|-----------------------------------6----------------------|
    D|-----------------------------------7--2-0-0---------------|
    A|-----------------------------------7-----4-4-2-4-2-0-2-0--|
    E|-----------------------------------5------------------0---|
    
    B)
    e|-0-4-55-4-5-0-4-55-4-5--0-4-5-4-2-4-2-0-2-0-0-|
    B|-------------------------------------------3--|
    G|----------------------------------------------|
    D|----------------------------------------------|
    A|----------------------------------------------|
    E|----------------------------------------------|
    
    e|---00-0--00-0---0-2-0-------|
    B|--0--3--0--3---0-----3-2-0--|
    G|-1-----1------1-----------2-|
    D|----------------------------|
    
  • +
    ¡Colabora con nosotros!
    Envíanos tu versión de esta canción

Letra de La Polvadera
Etas Noche Me Voy Al Baile A Levantar Una Polvadera...
Etas Noche Me Voy al baile A Levantar Una Polvadera...
Porque Van A Estar Los Cuates Tocando La Canelera...
Porque Van A Estar Los Cuates Tocando La Canelera...
Le Tocaron Un Beso Al Viento Me Puse Romanticon.....
Le Tocaron Un Beso Al Viento Me Puse Romanticon......
Y Con Este Zapateado Se Me Alegra El Corazon....
Y Con Este Zapateado Se Me Alegra El Corazon.....
Cuando Tenia Ganas De Verte Fui A Tu Casa Y Tu No Estabas...
Cuando Tenia Ganas De Verte Fui A Tu Casa Y Tu No Estabas...
Me Salio Tu Perro Hambriento Me Ladraba Y Me Ladraba
Me Agarro De Los Calzones Y Me Puso Una Rebolcada.....
Ya Con Esta Me Despido Ya Me Boy A Retirar
De Toditos Mis AmigosQue Ahora Voy A Mencionar
De Sonora,Sinaloa, De Jalisco, Y Michoacan...
Nayarit Y Guanajuato Zacatecas Por Igual....
Disculpen Me Mis Amigos Que No Alcanze A Mencionar............




[La Polvadera chords][La Polvadera cifra]
© LaCuerda.net · aviso legal · privacidad · es · en · pt · contacto
DINAMICO