Acordes de Guitarra » C »Corcobado » Cadalso de amor y odio (Tab)

Cadalso de amor y odio
Corcobado

Letras, Acordes y Tabs para Guitarra, Bajo y Ukulele

  • Intro y Pre-verso  
    ||-----------------------------------------------------------------------|G
    ||o----------------------------------------------------------------------|D
    ||o-0-3-0-3-0-5--3---0-3-0-3-0-5--3---0-3-0-3-0-5--3---0-3-0-3-0-5--3----|A
    ||-----------------------------------------------------------------------|E
    
    
     |----------------------------------------------------------------------|
     |-0-3-0-3-0-5--3---0-3-0-3-0-5--3--------------------------------------|
     |-----------------------------------0-3-0-3-0-5--3--0-3-0-3-0-5--3-----|
     |----------------------------------------------------------------------|
    
    
     |---------------------------------------------------------------------||
     |-----------------0-3-0-3-0-5--3-------------------------------------o||
     |---------------------------------0-3-0-3-0-5--3--0-3-0-3-0-5--3-----o||
     |-0-3-0-3-0-5--3------------------------------------------------------||
    
    
    
        aqui hay una pausa de puro ruido y percussion,
        y despues entra cantan
  • +
    ¡Colabora con nosotros!
    Envíanos tu versión de esta canción






[Cadalso de amor y odio chords][Cadalso de amor y odio cifra]
© LaCuerda.net · aviso legal · privacidad · es · en · pt · contacto
DINAMICO