Acordes de Guitarra » C »Coraza » Morir a los 33 (Tab)

Morir a los 33
Coraza

Letras, Acordes y Tabs para Guitarra, Bajo y Ukulele

  • G        Bm       Em              (esto 2 veces)
    ---3--------2--------------0---2---------------
    -----0--------3--------0-----0-----------------
    -------0--------4----0---0---------------------
    -----------------------------------------------
    ----------2------------------------------------
    -3-----------------0---------------------------
    
    C             D             G            
    -------0------2-3-2-0-------3-5-3-------3-5-3----------
    -1-3-1---1------------3-----------0------------0-------
    -----------0------------2-----------0------------------
    --------------0-----------------------0----------------
    -3-----------------------------------------------------
    ----------------------------3-5-3-------3-5-3-----0-2-3
    
    CADA PISADA LLEVA EL MISMO ARPEGIO
    
    G           Bm         Em
    La vida, el tiempo, la historia
    
  • +
    ¡Colabora con nosotros!
    Envíanos tu versión de esta canción

Letra de Morir a los 33
CADA PISADA LLEVA EL MISMO ARPEGIO
La vida, el tiempo, la historia
una vez en la vida,
se vive el tiempo, se acaba el tiempo.
Unas veces hasta arriba
otras tantas hasta el sotano,
a veces acelerado
o en sentido contrario.
La vida, se me va la vida
la vida no se que hacer con ella,
si acabarla a tiempo
o dejar correr el tiempo.
Morir a los 33 quisiera
para poder descansar,
de esta locura, que no tiene cura.
Dime por quien doblan las campanas
esas tristes campanas,
que doblaran
a los 33.
Requinto:
Cuantas noches excedidas has vivido
cuantos dias en las mismas,
para llegar
arrastrandote a trabajar
Mil rutas tiene la muerte
mil caminos para llegar
y ninguno para regresar.
BUENO PUES ESA ES TODA LA CANCION DE PACO YESCAS UN EXPERTO EN GUITARRA
EGRESADO DEL INSTITUTO NACIONAL DE BELLAS ARTES (INBA) Y QUIEN TIENE ROLAS
IGUAL DE INTERESANTES.
SALUDOS AL BACHILLERES 3, TURNO MATUTINO
CUALQUIER DUDA A danielcvmp@hotmail.com

Video de Morir a los 33
[]




[Morir a los 33 chords][Morir a los 33 cifra]
© LaCuerda.net · aviso legal · privacidad · es · en · pt · contacto