Acordes de Guitarra » C »La Conquista » Causa Dolor (Tab)

Causa Dolor
La Conquista

Letras, Acordes y Tabs para Guitarra, Bajo y Ukulele

  •     DO                            MIm
    1. Yo que tantas veces te dije te amo
        FA                       SOL
       Y que estando juntos te decía
    
        DO                            MIm
    2. Que serías por siempre dueña de mi vida
        FA                       SOL
       Y que nunca íbamos a separarnos
    
       LAm                  MIm
    3. Pero no fue así y ahora te perdí
        FA                       SOL
       Dime que hice mal por que te alejas de mí
    
    Coro…
        DO                            MIm
    Pero causa dolor, el perderte así
        FA                       SOL
    Estaba ilusionado contigo pero nunca fue así
    
  •           C                      Em
    E|----8-8-8----------------10-10-10--------------------------|
    B|----------8-8-8-----8--------------8-8-8----8--------------|
    B|-----------------9-----------------------9-----------------|
    D|-----------------------------------------------------------|
    A|-----------------------------------------------------------|
    E|-----------------------------------------------------------|
    
           F                      G
    e|----12--10--8--12--10--8-8s10----15------------------------|
    B|-----------------------------------------------------------|
    B|-----------------------------------------------------------|
    D|-----------------------------------------------------------|
    A|-----------------------------------------------------------|
    E|-----------------------------------------------------------|
    VERSOS:-----------------------------------------------------------
    C                              Em
    Yo que tantas veces te dije te amo
    F                         G
    Y que estando juntos te decía
    
  • +
    ¡Colabora con nosotros!
    Envíanos tu versión de esta canción

Letra de Causa Dolor
1. Yo que tantas veces te dije te amo
Y que estando juntos te decía
2. Que serías por siempre dueña de mi vida
Y que nunca íbamos a separarnos
3. Pero no fue así y ahora te perdí
Dime que hice mal por que te alejas de mí
Coro…
Pero causa dolor, el perderte así
Estaba ilusionado contigo pero nunca fue así
Pero causa dolor, demasiado dolor
Haberte entregado mi vida y nunca fue así.
Se repite la misma secuencia de notas para las demás estrofas.
4. Es que quise encontrar alguien así como tú
Cero que jamás en la vida me podré pasar
5. Y es que serías inolvidable talvez
Después de mucho tiempo juntos no te olvidaré.
Se repite la estrofa 3 y luego dos veces el coro.
Fin:
Pero causa dolor, pero causa dolor, el perderte así.

Video de Causa Dolor
[]




[Causa Dolor chords][Causa Dolor cifra]
© LaCuerda.net · aviso legal · privacidad · es · en · pt · contacto