Acordes de Guitarra » C »Compañia Limitada » Como decirte (Tab)

Como decirte
Compañia Limitada

Letras, Acordes y Tabs para Guitarra, Bajo y Ukulele

  •   Em     Am
    Cómo decirte
       D              G
    Decirte que yo te amo
       Em             Am
    Decirte cuanto te amo
          D                 G 
    Pero no encuentro las palabras
    
     Em        Am
    Hace unas lunas
         D               G
    Yo siempre sueño contigo
          Em              Am
    Que siempre sueño contigo
          D                  G
    Pero no encuentro las palabras
    
    Em      Am
    Para decirte
    
  • SOL   MIm  5ªRE
    ____ como decirte
      RE             SOL 
    decirte que yo te amo
      MIm            5ªRE
    decirte cuánto te amo
        RE                SOL 
    pero no encuentro las palabras
     MIm      5ªRE
    Hace unas lunas
        RE           SOL 
    yo siempre sueño contigo
         MIm           5ªRE
    que siempre sueño contigo
        RE                 SOL 
    pero no encuentro las palabras
    MIm       5ªRE
    ____ para decirte
         RE                 SOL 
    que siempre estás en mi mente
    
  • E|--2-0---------0--2--------3---------------------|
    B|--3---3--2--3----3----3---3----3--------3-------|
    G|--2------2-------2--2-----0--0---0----0---0-----|
    D|--0------2-------0------------------------------|
    A|---------0--------------------------------------|
    E|--------------------------3---------2-----------|
    
    
    
    Em        A
    Como decirte
            D Dsus4  G
    Decirte que yo te amo
      Em                   A
    decirte cuanto te amo
            D Dsus4                  G
    pero no encuentro las palabras
    
    (INTRO)
    
    
  • E|----------------------0-0H2--2H3-----------------|
    B|--7---5---3----2---3-----------------------------|
    G|-------------------------------------------------|
    D|-------------------------------------------------|
    A|--7---7---5----0---------------------------------|
    E|-------------------------------------------------|
    
    ESTE ARREGLO SE ESCUCHA DE FONDO MIENTRAS SE TOCA EL INTRO.
    DE IGUAL MANERA SE UTILIZA PARA TOCAR LOS VERSOS.
    
        Em                A7                  D
    
    E|----------0------------------0-----------------2H3P-------------|
    B|-------0-----0------------2----2-------------3------3-----------|
    G|----0-----------0------0----------0-------2------------2--------|
    D|----------------------------------------0-----------------------|
    A|---------------------0------------------------------------------|
    E|--0-------------------------------------------------------------|
    
        G
    
  • +
    ¡Colabora con nosotros!
    Envíanos tu versión de esta canción

Letra de Como decirte
Cómo decirte
Decirte que yo te amo
Decirte cuanto te amo
Pero no encuentro las palabras
Hace unas lunas
Yo siempre sueño contigo
Que siempre sueño contigo
Pero no encuentro las palabras
Para decirte
Que siempre estás en mi mente
Que siempre estás tan presente
Pero no encuentro las palabras
Cómo decirte
Decirte que yo te amo
Decirte cuanto te amo
Pero no encuentro las palabras
Y en mis caminos
Yo siempre camino contigo
Siempre camino contigo
Pero no encuentro las palabras
De una cosa estoy seguro, mira
Es que no tengo palabras
De una cosa estoy seguro, mira
Es que no tengo palabras
Para decirte
Decirte que yo te amo
Decirte cuanto te amo
Pero no encuentro las palabras
Para decirte
Que en mi corazón en silencio
Ya no encuentro palabras
Ya no encuentro palabras

Video de Como decirte
[]




[Como decirte chords][Como decirte cifra]
© LaCuerda.net · aviso legal · privacidad · es · en · pt · contacto
DINAMICO