Tablatura para Guitarra de Coalo Zamorano: Santo
Conexión · Inscripción
Letras y Acordes
Pantalla Completa
Imprimir
Versión Texto
Añadir Favorito
Otras Versiones

Mostrar Diagramas
Desfile Automático
Manipular Acordes
Formato del Texto


Santo(TAB)

Coalo Zamorano

calidad:
czam0523
AUTOR: Coalo Zamorano
ALBUM: Más Fuerte que Nunca (2011)
Enviado por Juan
Intro
El intro se supone que es con un delay, pero en lo personal lo toco sin delay
y lo meto a mi gusto igual con las mismas notas.
Nomas les dejo las notas del digamos "solo" de la intro

e------------------------------
B---7---8---7---3---5----------
G------------------------------
D------------------------------
A---5---7----------------------
E-----------5---3---5----------

En la estrofa se sigue tocando lo mismo que la intro

  Por Los Siglos Eres Dios

  La Creación Te Adora Hoy

  Cada Tribu y Nación

  Cantaran En Alta Voz


-Pre-Chorus

    Saaaaaaaaaaaaaaanto
e---7---11---9---5---7--
B-----------------------
G-----------------------
D---5---9----7---4---5--
A-----------------------
E-----------------------

    Saaaaaaaaaaaanto
e---11---12---9----7----
B-----------------------
G-----------------------
D---9----11---7----5----
A-----------------------
E-----------------------

    Saaaaaaaaaaanto
e---11---9---5---7------
B-----------------------
G-----------------------
D---9----7---4---5------
A-----------------------
E-----------------------
                Eres Tu

-Estrofa (repetimos la linea del intro)

Manos Santas Hoy A Ti
Levantamos Con Amor
Libres Para Adorar
Hoy Venimos A Cantar

-Pre-Chorus (lo mismo que hicimos en el pre-chorus)

-CORO:
D Em G D Em G Eres Tu, Rey Eterno Soberano Eres Luz
Bm C#m D Em Eres Tu, Eres Santo Puente: G Em e-7-7-7--------------------------- Santo, Santo, Santo, Santo B-------7-7-7-10-10-10------------ G----------------------7-7-7-7h9-- D--------------------------------9
G Em Santo, santo, santo, santo B-------7-7-7-10-10-10------------ G----------------------7-7-7-7h9-- D--------------------------------9 La canción esta sencilla, solo es cuestión de escucharla bien y saber como va la rítmica para meter el intro y lo que hace la lira eléctrica Les mando un saludo y quedo a sus ordenes. Aridai Sánchez,Iglesia Dios es Amor Chihuahua, Chihuahua. fb: Juan Aridai correo: juan_72_13@hotmail.com
Este fichero es trabajo propio de su transcriptor y representa su interpretación personal de la canción. El material contenido en esta página es
para exclusivo uso privado, por lo que se prohibe su reproducción o retransmisión, así como su uso para fines comerciales.

© LaCuerda.net · Aviso Legal · Privacidad