Acordes de Guitarra » C »Coalo Zamorano » Me haces feliz (Tab)

Me haces feliz
Coalo Zamorano

Letras, Acordes y Tabs para Guitarra, Bajo y Ukulele

  • INTRO: F2 Em7 D11 Em7 F2 Em7 D11 F#aug#79 2 VECES
    
    F2
    Has puesto una Canción en mi corazón En mi corazón
                                              F#aug7#9
    Quitaste el lamento y alegría tengo hoy
    F2
    Gozo me diste por mi dolor
                                E C D A
    Hoy lo declaro por tu amor  o o o or
    
    Coro en montuno
    
    Am              Dm             Am
    Me haces feliz  Me haces feliz Me haces feliz
    Dm                 E (Eaug#79 LA segunda vez)
    Yo me alegrare por siempre en ti. 2x
    
    Notas de intro
    F2         D11 Em7 F2  F2 Em7 D11 Em7 F2 Em7 D11 F#aug#79
    
  •           Fmaj9
    Has puesto una canción en mi corazón, quitaste el lamento y
                     F#9(#11)   Fmaj9
    Alegría tengo hoy, sii...   Gozo me diste por mi dolor, hoy
                           E-C-D-A (Nota Por nota)
    Lo declaro por tu amor o o o o...
    
    Am7              Dm9    E7(#9)       Am7               Dm9
       Me haces feliz,  me haces   feliz,   me haces feliz,
            E7(#9)                  Am7           Dm9    E7(#9)
    Yo me alegraré por siempre en tí. Me haces feliz, me haces
        Am7              Dm9         C  Bm7    F#9(#11)   Fmaj9
    Feliz, me haces feliz, yo me alegra-ré por siempre en tí.
    
    1º /Fmaj9-F/A-D11-Dm9-E7sus4-Fmaj9/ (Dm9-C13)
    
              Fmaj9
    Has puesto una canción en mi corazón, quitaste el lamento y
                     F#9(#11)   Fmaj9
    Alegría tengo hoy, sii...   Gozo me diste por mi dolor, hoy
    
  • HOLA ESTA ES MI PRIMER TRASCRIPCION ASI Q ESPERO Q LES SIRVA
    LES ACONSEJO Q ESCUCHEN LA CANCION PARA Q EMPALMEN BN LOS
    TIEMPOS
    
    INTRO x2
    
    B --------------3--3-3-----------------3----------
    E --1-1-1-1-5----------0--1-1--1-1-5----------2---
    A ------------5----------------------5------------
    D ------------------------------------------------
    G ------------------------------------------------
    
    VERSO (aquí solo marca los tiempos)
    
    PRE CORO 1
    E --------------
    A ----8----5/1--
    D --7----5------
    G --------------
    
    CORO
    E ------------------------------------------------------
    A –-3-5-5-8-------5---------5/1-3-5-5-8-------5---------
    D ----------7-5/1---5-5-7---------------7-5/1---5-5-6-7-
    G ------------------------------------------------------
    
    E -----------------------------------------------------------
    A –5/1-3-5-5-8-------5---------5/1-3-5-5-8-------------7-----
    D -------------7-5/1---5-5-7---------------7-5-5-5-5-4-----2-
    G -----------------------------------------------------------
    
    INT
  • +
    ¡Colabora con nosotros!
    Envíanos tu versión de esta canción

Letra de Me haces feliz
Has puesto una Canción en mi corazón En mi corazón
F#aug7#9
Quitaste el lamento y alegría tengo hoy
Gozo me diste por mi dolor
Hoy lo declaro por tu amor o o o or
Me haces feliz Me haces feliz Me haces feliz
Yo me alegrare por siempre en ti. 2x
Notas de intro
Me haces feliz oh si
AL PRINCIPIO
Para puente
Yo me ale e grare por siempre en ti
Salsa las notas
Bm7b5 E Am y se repite el montunos
Dios Les bendiga. Es complicado escribirlo
en cifrado. Manden me correo si les ayudo.




[Me haces feliz chords][Me haces feliz cifra]
© LaCuerda.net · aviso legal · privacidad · es · en · pt · contacto