Acordes de Guitarra » C »Claudio Freidzon » Aguas Profundas (Tab)

Aguas Profundas
Claudio Freidzon

Letras, Acordes y Tabs para Guitarra, Bajo y Ukulele

  •     Am           F           G                Em    G
    E:--------------------------------------------------------------//
    B:--------------------------------------------------------------//
    G:--------5-4-5-------5-4-5-------5-4-5-------9-9---12-12------//
    D:--2-2----------3-3---------5-5--------------9-9---12-12------//
    A:--------------------------------------------7-7---10-10------//
    E:-------------------------------------------------------------//
    
    
    /// Am      F       G    Em-G///
          Oh,   oh, oh, oh
    
     Am     F       G
       oh,  oh, oh, oh
    
    
    //Am         F        G      Em-G
       Ven sobre mí como lluvia,
    Am                  F             G     Em-G
       Has las aguas subir en este lugar.
    
  • INTRO: //Am-F-G -- Em-G//
    
    
    E:-----------------------------------------------------
    B:-----------------------------------------------------
    G:--------5-4-5-------5-4-5-------5-4-5----------------
    D:--2-2----------3-3---------5-5---------2-2---5-5-5---
    A:---------------------------------------2-2---5-5-5---
    E:-----------------------------------------------------
    
    
    //Am    F       G      Em-G//
      Oh,   oh, oh, oh
    
    
    //Am          F        G      Em-G
       Ven sobre mí como lluvia,
    Am                F            G      Em-G
     Has tus aguas subir en este lugar.
    Am          F         G      Em-G
    
  •      Am            F         G      Em    G
    1º-----------/----------/---------/----/-------/
    2º-----------/----------/-------- /----/-------/
    3º-----5-4-5-/----5-4-5-/---5-4-5-/----/-------/
    4º--2-2------/3-3-------/5-5------/2-2-/5-5-5--/  ( x 3)
    5º-----------/----------/---------/2-2-/5-5-5--/
    6º-----------/----------/---------/0-0-/3-3-3--/
    
    lo anterior lo hace 3 veces pero la cuarta la hace distinta:
    
    
        Am             F          G
    1º-----------/----------/------------/
    2º-----------/----------/------------/
    3º-----5-4-5-/----5-4-5-/---5-4-5-4--/
    4º--2-2------/3-3-------/5-5-------5-/
    5º-----------/----------/------------/
    6º-----------/----------/------------/
    
    
    
  • +
    ¡Colabora con nosotros!
    Envíanos tu versión de esta canción

Letra de Aguas Profundas
Oh, oh, oh, oh
oh, oh, oh, oh
Ven sobre mí como lluvia,
Has las aguas subir en este lugar.
Libera tu río sin medida
(1 vez) Y ven a tus aguas agitar.
[2vez] y ven a tus aguas agitar
// Yo quiero nadar, quiero nadar, en tu río.
(1vez)Quiero beber, quiero beber de tus aguas.
(2vez)Quiero beber, quiero beber de tus aguas
Oh, oh, oh, oh
oh, oh, oh, oh
//Ven sobre mi.....//
//yo quiero nadar..//
Existen aguas a los tobillos,
Existen aguas a las rodillas,
Existen aguas a los lomos,
Pero hay aguas profundas…..yo se.
//quiero nadar...//
existen aguas.....
/// oh, oh, oh oh///
oh, oh oh, oh




[Aguas Profundas chords][Aguas Profundas cifra]
© LaCuerda.net · aviso legal · privacidad · es · en · pt · contacto