Acordes de Guitarra » C »Cirse » Muy Tarde (Tab)

Muy Tarde
Cirse

Letras, Acordes y Tabs para Guitarra, Bajo y Ukulele

  • Intro F#5 A5 D5 B5 x2
    
    F#5
    Hay!!!!
    D5    B5     F#5        D5   B5
     al verte  no se que haceeeeer
    D5                     A5       E5          F#5 A5 x4
    Cada excusa en su lugar hace que te pierdas...
    
    F#5
    Hay!!!
    D5    B5         F#5        D5   B5
    otra vez es tarde al regresar
    D5                     A5       E5             F#5 A5 x4
    Cada muestra de tu amor algo que nunca me bastó...
    
    ESTRIBILLO
    **********
    B5      D5    A5          E5
    Quiero ver cuando te dirijas hacia mi
    
  • (Intro) (F#/E A D B) x2
    
    F#/E
    Hay!!!!
    D    B   F#/E         D   B
     al verte  no se que haceeeeer
    D                     A       E
     Cada excusa en su lugar hace que te pierdas...
    
    
    (F#/E A) x4
    
    
    Hay!!!
    otra vez es tarde al regresar
    Cada muestra de tu amor algo que nunca me bastó...
    
    
    (F#/E A) x4
    
    
  • Intro (x2)
    G|---------------------------------|
    D|---------------------------------|
    A|------------------55555555-22222-|
    E|-222222-00--55555----------------|
    
    Verso (0:11)
    G|-----------------------------|
    D|-----------------------------|  (x2)
    A|--------------55555555-22222-|
    E|-222222-00-------------------|
    
    Cada excusa en su lugar (0:22)
    G|---------------------------------|----------------|
    D|---------------------------------|----------------|
    A|-55555555-55555-00000000---------|----------------|
    E|-------------------------0-00000-|--22-00-55-(x4)-|
    
    Se vuelve a repetir en la segunda vuelta desde el verso 1
    
    Quiero ver...(x2) (0:55)
    G|----------------------------------|
    D|----------------------------------|
    A|----------555555--000000-0--------|
    E|-222222-2------------------000000-|
    
    Una más y otra más (x2) (1:05)
    A|-----------55-5-222|
    E|-22-0--55-0--------|
    
    Es tarde... (x4)
    G|---------------------------------|
    D|---------------------------------|
    A|------------------55555555-222
  • +
    ¡Colabora con nosotros!
    Envíanos tu versión de esta canción

Letra de Muy Tarde
Hay!!!!
al verte no se que haceeeeer
Cada excusa en su lugar hace que te pierdas...
Hay!!!
otra vez es tarde al regresar
Cada muestra de tu amor algo que nunca me bastó...
ESTRIBILLO
**********
Quiero ver cuando te dirijas hacia mi
mirame cuando me de vuelta para ti
Una más y otra más, dejo cada cosa en su lugar
Uno más y otro más, dejo cada aliento en su lugar
Es tarde,
muy tarde...
Y te pierdo cada día más,
aunque sientas que conozco el nombre de tu soledad...
Quiero ver cuando te dirijas hacia mi
mírame cuando me de vuelta para ti
Una más y otra más, dejo cada cosa en su lugar
Uno más y otro más, dejo cada aliento en su lugar
Es tarde, muy tarde...
******************************************************************
Temaso de esta nueva banda ke esta keriendo salir arriba, ojalaa
(por alguna puteada o halago jajaja fustito@hotmail.com)
saludoss (Fau...)




[Muy Tarde chords][Muy Tarde cifra]
© LaCuerda.net · aviso legal · privacidad · es · en · pt · contacto
DINAMICO