Acordes de Guitarra » C »La Chunfala » Punay (Tab)

Punay
La Chunfala

Letras, Acordes y Tabs para Guitarra, Bajo y Ukulele

  • e--8-5-5---------8-5-5-----------
    b-----5-8-5---------5-8-5--------
    g----------7-5-----------7-5-----
    d-------------5-------------5----
    a--------------------------------
    e--------------------------------
    
                                        ( Am     G   C    E7 )  Am
    e------------0-2-3----------------------------------0--------0--
    b-------0-1-3-------8-8-7-5----3---------1----0----1----0----1--
    g--2-1-2------------9-9-7-5--------4----2----0----0----1-----2--
    d-2------------------------------------2----0----2----0------2--
    a------------------7----5-3-----------0----2----3------------0--
    e----------------------------2---4-------------------0---------
    
    E7 - Am / E7 - Am Am / Am
    
    Am
    Punay punay,
    F          C
    
  • +
    ¡Colabora con nosotros!
    Envíanos tu versión de esta canción

Letra de Punay
Punay punay,
devuelvemé devuelvemé
mi pastorcita perdida
Punay punay,
devuelvemé devuelvemé
mi pastorcita perdida
Pastorcita de la puna te extraviaste en noche mala
Pastorcita de la puna te extraviaste en noche mala
Mi voz te busca en el viento y en la puna te reclama
Mi voz te busca en el viento y en la puna te reclama
- Estribillo -
Punay punay,
devuelvemé devuelvemé
- Introducción -
Aunque tenga en esta vida que viento y tierra tragar
Aunque tenga en esta vida que viento y tierra tragar
Pastorcita de la puna te i de encontrar ti de encontrar
Pastorcita de la puna te i de encontrar ti de encontrar
- Estribillo -
Punay
punay
pu u u u uuunay

Video de Punay
[]




[Punay chords][Punay cifra]
© LaCuerda.net · aviso legal · privacidad · es · en · pt · contacto