Acordes de Guitarra » C »Christian Meier » Carreteras Mojadas (Tab)

Carreteras Mojadas
Christian Meier

Letras, Acordes y Tabs para Guitarra, Bajo y Ukulele

  • F#m  E  F#m  E
    
    
    F#m
      A mas de cien
            E
      contando las luces para volver
    F#m
      de nuevo estoy
                 E
      buscandote sin saber donde voy
              A
      y del timon
    
      aferrandome con fuerza
    D
      adivinando que piensas
    Bm
      muriendo de sed
    E
    
  • Solo:
    
    e|-------------------------------
    B|-------------------------------
    G|-------------------------------
    D|-----3---3h5--------------3----
    A|-3h5---5------------1-3s5---3--
    E|----------------1s3------------
    
    e|-----------------------------------------------
    B|-----------------------------------------------
    G|---------------3-5-5b7-5b7--7r5h3-5--3--2s3-2--
    D|-----3---3h5-----------------------------------
    A|-3h5---5---------------------------------------
    E|-----------------------------------------------
    
    e|--------------------------------------------
    B|--------------------------------------------
    G|-----------------3---3-5-3-5s7-5-3-5-3---3--
    D|-----3---3-5-3-5---5-------------------5----
    A|-3s5---5------------------------------------
    E|--------------------------------------------
    
    e|------------------------------------------------------
    B|-------------------------------------------------3-3--
    G|-3h5-3---2h3-2---------------------3---------3-5------
    D|----------------3-3s5-3------3-
  • +
    ¡Colabora con nosotros!
    Envíanos tu versión de esta canción
  • Tutorial
    HD
    Carreteras mojadas - CHRISTIAN MEIER (tutorial)
    4:35

Letra de Carreteras Mojadas
A mas de cien
contando las luces para volver
de nuevo estoy
buscandote sin saber donde voy
y del timon
aferrandome con fuerza
adivinando que piensas
muriendo de sed
de verte otra vez
Dos mil cigarros
y mil cervezas en la cabeza
alucinando
que el auto se eleva por la maleza
y de nuevo el sudor
enfriandome las venas
empapandome de pena
y si mi destino esta en ese camino
me lo llevare...
CHORUS:
Carreteras mojadas
nieblas heladas
otra vez estoy mane-
jando en la madrugada
con el temor de ser
por lo que pueda ver
seguire manejando
el auto hasta la mañana
Es madrugada
casi las cuatro de la mañana
cayendo solas
las almas que liberan desdichadas
perdoname
fue sin querer
es que no entiendo
hace tanto tiempo
se que puedes volver...
REPEAT CHORUS (x 1)
...el miedo de verte me va rodeando
te va separando de mi
te va separando de mi...
REPEAT CHORUS X BOUNCH OF TIMES




[Carreteras Mojadas chords][Carreteras Mojadas cifra]
© LaCuerda.net · aviso legal · privacidad · es · en · pt · contacto