Acordes de Guitarra » C »Christian Daniel » Ahora que te vas (Tab)

Ahora que te vas
Christian Daniel

Letras, Acordes y Tabs para Guitarra, Bajo y Ukulele

  • G                                      Bm
    Hoy me despierto con el alma hecha pedazos;
    D                                  A
    hoy me despido sin querer decir adiós.
    G                                  Bm
    Vete despacio para no sentir tus pasos;
    D                                    A
    vete en silencio para no escuchar tu voz.
    
    
    
    Puente:
           Em         Bm       A
    No te niego que siento miedo;
           Em         Bm       A
    enfrentarme a la vida sin ti.
    
    
    
    Coro:
    
  • |-----------------------------------------------------------------------------|
    |Esto es lo que se repite en las estrofas                                     |
    |1|-3-----------3-----------3-----------3-----------2-----------2----------|  |
    |2|----3-----3-----3-----3-----3-----3-----3-----3-----3-----3-----3-----3-|  |
    |3|-------0-----------0-----------0-----------0-----4-----4-----------4----|  |
    |4|------------------------------------------------------------------------|  |
    |5|------------------------------------------------------------------------|  |
    |6|------------------------------------------------------------------------|  |
    |                                                                             |
    |1|-3-2-2-----------2-----------2-----------2-----0-----------0------------|  |
    |2|-3-3-3--3-----3-----3-----3-----3-----3-----3-----2-----2-----2-----2---|  |
    |3|-0-4-2-----2-----------4-----------4-----------2-----2-----------2------|  |
    |4|------------------------------------------------------------------------|  |
    |5|------------------------------------------------------------------------|  |
    |6|------------------------------------------------------------------------|  |
    |                                                                             |
    |-----------------------------------------------------------------------------|
    
    Intro
    
    
  • +
    ¡Colabora con nosotros!
    Envíanos tu versión de esta canción

Letra de Ahora que te vas
Hoy me despierto con el alma hecha pedazos;
hoy me despido sin querer decir adiós.
Vete despacio para no sentir tus pasos;
vete en silencio para no escuchar tu voz.
No te niego que siento miedo;
enfrentarme a la vida sin ti.
Y ahora que te vas,
llévate mi vida entera.
No se ni a donde irás,
pero entiendo que tendrás que partir.
Y ahora que te vas,
recuerda que el amor espera.
Y aunque no vuelvas más,
prometo no olvidarme de ti.
¿Cómo olvidarme de ti?
Estrofa:
No duermo solo, me acompaña tu retrato;
y en las mañanas suelo reclamar le a Dios.
Que ya no insista en arrancarte de mis brazos;
ya no podría soportar tanto dolor.
No te niego que siento miedo;
enfrentarme a la vida sin ti.
Y ahora que te vas,
llévate mi vida entera.
No se ni a donde irás,
pero entiendo que tendrás que partir.
Y ahora que te vas,
recuerda que el amor espera.
Y aunque no vuelvas más,
prometo no olvidarme de ti.
Sé que te está faltando el aire
y en minutos te me vas.
La impotencia de perderte,
me está comiendo el alma ya.
Sé que te está faltando el aire
y en minutos te me vas.
Sé que es tu último suspiro,
ya que mañana no estarás.
Y ahora que te vas,
llévate mi vida entera.
No se ni a donde irás,
pero entiendo que tendrás que partir.
Y ahora que te vas,
recuerda que el amor espera.
Y aunque no vuelvas más,
prometo no olvidarme de ti.

Video de Ahora que te vas
[]




[Ahora que te vas chords][Ahora que te vas cifra]
© LaCuerda.net · aviso legal · privacidad · es · en · pt · contacto
DINAMICO