Acordes de Guitarra » C »El Cholo Berrocal » Payaso (Tab)

Payaso
El Cholo Berrocal

Letras, Notas, Punteos, Tablaturas y Acordes de Guitarra (Tabs & Chords)

  • Tablatura
    -----------
    
    INTRO:
    
    (1)
    
    --------12-12----12----12-10-12-10-8-----7-8-10-8-7-8---5-8-5------
    --------------------------------------------------------------8-5--
    --10-10-------10----10---------------------------------------------
    -------------------------------------------------------------------
    -------------------------------------------------------------------
    -------------------------------------------------------------------
    
    
    ------12-12----12----12-10-12-10-8---------7-8-10-8-7-8---5-8-5----
    ----------------------------------------10---------------------8-5-
    ---10-------10----10------------------9----------------------------
    -------------------------------------------------------------------
    -------------------------------------------------------------------
    -------------------------------------------------------------------
    
  • Tablatura
    -----------12-----12------12-10-12-10-8---------------
    ----------------------------------------10------------
    -10-10-10------10----10------------------------------
    ----------------------------------------------------
    ----------------------------------------------------
    -----------------------------------------------------
    
    
    -----7-7--8-8--10-8-7-8-----------------------------
    -10---------------------10-10-8-8-------------------
    ----------------------------------9-------------------
    -----------------------------------------------------
    -----------------------------------------------------
    
    
    ---------7--10--7------12-12----12-14-15--12--8-8------
    -------9--------7------12-12--------------12--8-8-------
    -7--9----------------------------------------------------
    -7--9----------------------------------------------------
    -------------------------------------------------------
    
  • +
    ¡Colabora con nosotros!
    Envíanos tu versión de esta canción

Letra de Payaso
riendo voy por la vida
tratando de olvidar mi pobre pena
pero no saben que aqui dentro llevo
un trite fracaso de tragedia y de dolor
reir y reir es mi destino
tanto talvez por no llorar
yo rio cual un payaso
que trata de fingir
el sufrimiento
saludos desde bolivia y ojala pues sacacaran mas temas los peruanos
para esta pagina del cholo verrocal
aaaaaaahhh saludos PARA MIS PRIMOS EN SANTA CRUZ MARCOS Y MI QUERIDA PRIMA ELiANA

Videos de Payaso
[ver más videos]



© LaCuerda.net · Aviso Legal · Privacidad