Acordes de Guitarra » C »Chico Che » Pobrecito mi cigarro (Tab)

Pobrecito mi cigarro
Chico Che

Letras, Acordes y Tabs para Guitarra, Bajo y Ukulele

  •       E7        Am       D7        G
    e--------------------------------------
    B--0-1-3--3-3--3-3-1------1--1-0---0---
    G-----------------------2--2-----2-----
    D--------------------------------------
    A-------------------------------------¬-
    E--------------------------------------
    
       Am              Em         B7     Em
    e--8------------7-----------------------
    B----7-8-10-8-7---5----4-5-7-----8-7-5--
    G----------------------------4----------
    D---------------------------------------
    A---------------------------------------
    E---------------------------------------
    
       Am              Em         B7     Em
    e--8------------7-----------------------
    B----7-8-10-8-7---5----4-5-7-----8-7-5--
    G----------------------------4----------
    
  • +
    ¡Colabora con nosotros!
    Envíanos tu versión de esta canción

Letra de Pobrecito mi cigarro
Pobrecito mi cigarro un día te han de culpar
Cuando el corazón cansado me deje de funcionar
(Cuando el corazón cansado me deje de funcionar)
Y a lo largo de la vida: fumar, fumar y pensar
Sueños envueltos en humo y son humo nada más
(Sueños envueltos en humo y eran humo nada más)
Qué larga la madrugada cuánto tarda en aclarar
Bien haya mi cigarrito hermano en mi soledad
(Bien haya mi cigarrito hermano en mi soledad)
Y a lo largo de la vida: fumar, fumar y pensar
Sueños envueltos en humo, eran humo nada más
(Sueños envueltos en humo y eran humo nada más)
Una queja en la guitarra, en el aire algún cantar
Y el humito del cigarro que no sabe a dónde va
(Y el humito del cigarro que no sabe a dónde va)
Y a lo largo de la vida: fumar, fumar y pensar
Sueños envueltos en humo, que son humo nada más
(Sueños envueltos en humo y eran humo nada más)
Pobrecito mi cigarro un día te han de culpar
Cuando el corazón cansado me deje de funcionar
Me deje de funcionar
Me deje de funcionar
Me deje de funcionar
FIN




[Pobrecito mi cigarro chords][Pobrecito mi cigarro cifra]
© LaCuerda.net · aviso legal · privacidad · es · en · pt · contacto
DINAMICO