Acordes de Guitarra » C »Los Chicanos » Pecado Mortal (Tab)

Pecado Mortal
Los Chicanos

Letras, Acordes y Tabs para Guitarra, Bajo y Ukulele

  • E------------------------------------------
    A------------------------------------------
    D------------------------------------------
    G-9-----9-----9-8-8-7-7-7-7-7-5-5-4-5------
    B---7-8---8-----8---8---6---6-5-5-4-5------
    e-----------7---7---7---7---7-5-5-4-5------
    
    E-7-----------------------------------------
    A--9----------------------------------------
    D---7---------------------------------------
    G----8--------------------------------------
    B-----7-------------------------------------
    e------7------------------------------------
    
    En lo que sigue se repite lo primero
    y se añade lo siguiente:
    
    E-------------------------------------------
    A-------------------------------------------
    D------------------------------------------
    G-------------------------------------------
    B---------------------------------------5--
    e-5-7-8-7-5-7-5-7-5-3-2-3-5-3-2-3-2-3-2-----
    
    
    
    
    
    
    
    Esta es mi primera transcripción y quisiera
    mandar saludos a toda la banda de la esc.sec.
    Of. No. 270 en especial a los de t
  • +
    ¡Colabora con nosotros!
    Envíanos tu versión de esta canción



Video de Pecado Mortal
[]




[Pecado Mortal chords][Pecado Mortal cifra]
© LaCuerda.net · aviso legal · privacidad · es · en · pt · contacto