Acordes de Guitarra » C »Los Chicanos » Frío de ausencia (Tab)

Frío de ausencia
Los Chicanos

Letras, Acordes y Tabs para Guitarra, Bajo y Ukulele

  • D,C,G
    
    Riff Principal:
    
    e--------------7-----------------------------------
    B-------7-8-10---8----10-10-12-10--8-8-10-8--------
    G---7-9--------------------------------------------
    D--------------------------------------------------
    A--------------------------------------------------
    E--------------------------------------------------
    
    Riff 1:
    
    e--8--10-12-15-14----------------------------------
    B--10-12-13-17-15----------------------------------
    G--------------------------------------------------
    D--------------------------------------------------
    A--------------------------------------------------
    E--------------------------------------------------
    
    
  • +
    ¡Colabora con nosotros!
    Envíanos tu versión de esta canción

Letra de Frío de ausencia
Riff Principal:
Riff 1:
Riff 2:
La ví por última vez
aquella tarde
cuando mi alegría
poco a poco se alejaba.
Y el pobre corazón
melancólico y cobarde
al contemplar su rostro
fallaba.
Sentí frío(Riff1) y era el frío de la ausencia(Riff2)
sentí miedo, miedo del olvido
que penetraba en mi cuerpo su presencia
y sentirme ante ella confundido.
Adiós le dije estrechándola en mis brazos
adiós, adios.
Adiós le dije estrechándola en mis brazos
adiós, adios.
Riff Principal
Me iré ya por el camino
de la vida incierta,
dejando mi corazón
en tu regazo
para que lo guardes
como un cariño incierto
en el cofre encefálico
viviendo en tu recuerdo
Mientras regreso
espero no haya muerto.
Siento frío(Riff1) y es el frío de la ausencia(Riff2)
siento miedo, miedo del olvido
Pero llévame diario en tu recuerdo
exigiré si para ti yo he muerto.
Regresaré a abrigarme con tu cuerpo
mi bien, a ti.

Video de Frío de ausencia
[]




[Frío de ausencia chords][Frío de ausencia cifra]
© LaCuerda.net · aviso legal · privacidad · es · en · pt · contacto