Acordes de Guitarra » C »Chavela Vargas » La Llorona (Tab)

La Llorona
Chavela Vargas

Letras, Acordes y Tabs para Guitarra, Bajo y Ukulele

  • e ---------0-----------------  0-1-0--------  ----  -----0  ----
    b ------0-1-3-1-0-----------1  ------3-1-0--  ---1  ----0-  ---1
    g 2-1-2-----------2-0---0-2--  ------------2  --2-  ---1--  --2-
    d --------------------2------  -------------  -2--  --2---  -2--
    a ---------------------------  -------------  0---  -2----  0---
    e ---------------------------  -------------  ----  0-----  ----
    
     Am        A7         Dm
    no se que tienen las flores llorona
          LAm             E
    las flores del campo santo(bis)
          Am               G
    que cuando las mueve el viento llorona
     F              E
    parece que estan llorando(bis)
    Am    A7  Dm              Am           E
    hay de mi llorona, llorona tu eres mi yunta(bis)
    Am              G
    me quitaran de quererte llorona
           F         E
    
  • e ---------0----------------------------------------------------
    b ------0-1-3-1-0-----------0-3-1-0-----------------0-------0---
    g 2-1-2-----------2-0---0-2---------2-0-------0-2-2---2-1-2-----
    d --------------------4-----------------3-2-3-------------------
    a --------------------------------------------------------------
    e --------------------------------------------------------------
    
    
    e ---------0-------------------------------------------------------0-
    b ------0-1-3-1-0-----------0-3-1-0----------------1-0-------------0-
    g 2-1-2-----------2-0---0-2---------2-0-------0-2------2-0---------1-
    d --------------------4-----------------3-2-3---------------3---2--2-
    a -----------------------------------------------------------------2--
    e -----------------------------------------------------------------0--
    
    Am                    Dm
    Todos me llaman el negro llorona
          LAm            E (E7)
    el negro pero cariñoso (Bis)
          Am               G
    
  • e|--------------3-1----------------1--------------------------------------|
    B|----1-0-1-3-4-----4-3-1------1-3---4-3-1---------1--1-3-1-0-1-3--3-0----|
    G|------------------------3-2-3-----------3-1-0-1-3--------------------0--|
    D|------------------------------------------------------------------------|
    A|------------------------------------------------------------------------|
    E|------------------------------------------------------------------------|
    Fig.2
    e|------3--4--3--1------------3------ 3----------|
    B|--1-1--3--1--0---4--3------4--------3----------|
    G|----------------3--0------5---------4----------|
    D|-------------------------5----------5----------|
    A|------------------------3----------------------|
    E|----------------------------------3------------|
    
    -------------------------------------------------------------------------
    Acordes Cm    Fm     G7     A#    G#    G
    
    El * indica una variación al momento de tocar el acorde
    
    
    
  • +
    ¡Colabora con nosotros!
    Envíanos tu versión de esta canción
  • Tutorial
    HD
    La llorona, son istmeño, cómo tocarla en la guitarra
    9:29

Letra de La Llorona
no se que tienen las flores llorona
las flores del campo santo(bis)
que cuando las mueve el viento llorona
parece que estan llorando(bis)
hay de mi llorona, llorona tu eres mi yunta(bis)
me quitaran de quererte llorona
pero de olvidarte nunca(bis)
a un santo cristo de fierro llorona
mis penas le conte yo (bis)
cuales no serian mis penas llorona
que el santo cristo lloró(bis)
hay de mi llorona, llorona de un campo lirio(bis)
el que no sabe de amores llorona
no sabe lo que es martirio(bis)
dos besos llevo en el alma llorona
que no se apartan de mi(bis)
el ultimo de madre llorona
y el primero que te di(bis)
hay de mi llorona, llorona llevame al rio(bis)
tapame con tu reboso llorona porque me muero de frio(bis)




[La Llorona chords][La Llorona cifra]
© LaCuerda.net · aviso legal · privacidad · es · en · pt · contacto