Acordes de Guitarra » C »Charly Zaa » Nuestro Juramento (Tab)

Nuestro Juramento
Charly Zaa

Letras, Acordes y Tabs para Guitarra, Bajo y Ukulele

  • e---7-10---13-12------------|----------------7-7-7--------|
    B--9-------------13--10--10-|----------9-9-9--------------|
    G-9-------------------------|----9-9-9--------------------|
    D---------------------------|-----------------------------|
    A---------------------------|-----------------------------|
    E---------------------------|-----------------------------|
    
    e-13-12------------|-13------------15------------|
    B-------13--10--10-|----15-15-15------15-15-15---|
    G------------------|-----------------------------|
    D------------------|-----------------------------|
    A------------------|------------(2 VECES)--------|
    E------------------|-----------------------------|
    
    
    e--12-----------13----------|-10-----------10-------------|---10---
    B-----13-13-13-----13-13-13-|----12-12-12-----12-12-12----|----8---
    G---------------------------|-----------------------------|--------
    D---------------------------|-----------------------------|--------
    A---------(2 VECES)---------|-------------(2 VECES)-------|--------
    
  • Am                      Dm
    No puedo verte triste porque me mata
    E7              Am
    Tu carita de pena, mi dulce amor 
    C              B7       Em
    Me duele tanto el llanto que tu derramas
    D           C          B7
    Que se llena de angustia mi corazón.
    
    E7   Am                 Dm
    Yo sufro lo indecible si te entristeces
    E7                    A7
    No quiero que la duda te haga llorar
        Bb7     A7      Dm
    Hemos jurado amarnos hasta la muerte
    Am
    Y si los muertos aman 
            B7     E7         Am
    Después de muertos, amarnos más
    
    
  • e|----9-12---15-14------------|-------------------9-9-9--15-14------------|
    B|--11-------------15--12--12-|-----------11-11-11------------15-12-12----|
    G|-11-------------------------|---11-11-11--------------------------------|
    
    e|-15--------17---------|-14--------15---------|-12--------14--------|-10-|
    B|---17-17-17--17-17-17-|---15-15-15--15-15-15-|---14-14-14--14-14-14|-8--|
    G|------(2 VECES)-------|------(2 VECES)-------|------(2 VECES)------|----|
    
    
    Bm             B7               Em
    No puedo verte triste porque me mata
    F#m           F#7             Bm
    tu carita de pena, mi dulce amor,
    D                  A7               D
    me duele tanto el llanto que tu derramas
    Em                 G             F#
    que se llena de angustia mi corazón.
    
    Bm              B7                Em
    Yo sufro lo indecible si tú entristeces,
    
  • Aquí el requinto va al aire y 
    la guitarra de acompañamiento también, 
    si quieren mejor modulación transporten 
    una tercera guitarra el tercer traste
    'está como en su disco'
    
    
    
    A—E7----------------------Am---------------------
    D------------------------------------------------
    G------------------------------------------------
    C---6—-10----------------------------11-—11--11--
    E------------9---12------------10----------------
    A--------------------10---9----------------------
    
    A-E7---------------------------------------Am----
    D------------------------------------------------
    G------------------------------------------------
    C-6-6-6-6-10-10-10-10---------------------11-----
    E---------------------9-9-9-9-12------10-----10--
    A--------------------------------10-9-----------9
    
    
    
    A--Dm--------------------------------------------
    D------------------------------------------------
    G------------------------------------------------
    C---------------------------------
  • +
    ¡Colabora con nosotros!
    Envíanos tu versión de esta canción

Letra de Nuestro Juramento
No puedo verte triste porque me mata
tu carita de pena, mi dulce amor,
me duele tanto el llanto que tu derramas
que se llena de angustia mi corazon.
Yo sufro lo indecible si tu entristeces,
no quiero que la duda te haga llorar,
hermos jurado amarnos hasta la muerte
y si los muertos aman,
despues de muertos amarnos mas.
Si yo muero primero, es tu promesa,
sobre de mi cadaver dejar caer
todo el llanto que brote de tu tristeza
y que todos se enteren de tu querer.
Si tu mueres primero, yo te prometo,
escribire la historia de nuestro amor
con toda el alma llena de sentimiento
la escribire con sangre,
con tinta sangre del corazon.
Si yo muero primero, es tu promesa,
sobre de mi cadaver dejar caer
todo el llanto que brote de tu tristeza
y que todos se enteren de tu querer.
Si tu mueres primero, yo te prometo,
escribire la historia de nuestro amor
con toda el alma llena de sentimiento
la escribire con sangre,
con tinta sangre del corazon.
El rasgado es como el de un bolero. Lo que esta en parentesis no va
rasgado.
ACORDES:
RASGADO (COMO BOLERO):
Ejemplo con:




[Nuestro Juramento chords][Nuestro Juramento cifra]
© LaCuerda.net · aviso legal · privacidad · es · en · pt · contacto