Acordes de Guitarra » C »Chaqueño Palavecino » Luna vallista (Tab)

Luna vallista
Chaqueño Palavecino

Letras, Acordes y Tabs para Guitarra, Bajo y Ukulele

  • REm               SOLm            REm          LA7
    Luna de los valles la compañera de la soledad
                   REm   SOLm   FA LA7 REm LA7
    tu corazón de adobe late en Saclantas
                   REm            SOLm   FA  LA7  REm
    Tu corazón de adobe y baguala late en Sanclantas.
    
    Luna en Cafayate la noche entera te sueles quedar
    solo montando guardia en el medanal
    solo montando guarda de estrella en el medanal.
    
    Estribillo:
    SIb                               DO                 FA
    Luna lunita Vallista, candil encendido, silencio, canción
     LA7           REm
    La rosa de un amante
    SOLm FA LA7 REm LA7            REm             SOLm FA LA7 REm
    que te regalo   la luz del caminante que viaja en tu corazón.
    
    Luna de molinos desgrana coplas tu lado cantor
    
  • LUNA VALLISTA.
    
    TRANSCRIPCION DE FERANANDA Garcia...¡
    
    
    1---9---11---13--/-9---11---13--/---9---13--9- --/--15-15-15-15—
    2--10--12---15--/10—12---15--/--10--15--10--/--17-17-17-17—15---
    3-----------------/---------------------------------------------
                       (***)
    1----13—11—9----7---5---4-----/
    12—10—9---7------5--/
    -----------------------------
    
    2---11-10-------------------/--------------------------------
    3-----------12-10-9---------/---9--10-12---9--10-12----------
    4----------------------12---/--------------------------------
    5 --------------------------/--------------------------------
    
    2-----------------------------------------/
    3-----10-12------10-12----------/
    4---10-10----------10---------10-------/
    5---------------------------------------/
    
    1---1-----3-----3-------5-------9-------11-------------/---
    2-----3-----3------5-------6------11------12-----------/---
    3----------------------------------------------------------
    4---------------------------------------
  • +
    ¡Colabora con nosotros!
    Envíanos tu versión de esta canción

Letra de Luna vallista
Luna de los valles la compañera de la soledad
tu corazón de adobe late en Saclantas
Tu corazón de adobe y baguala late en Sanclantas.
Luna en Cafayate la noche entera te sueles quedar
Estribillo:
Luna lunita Vallista, candil encendido, silencio, canción
La rosa de un amante
que te regalo la luz del caminante que viaja en tu corazón.
Luna de molinos desgrana coplas tu lado cantor
anochecida samba complice de amor
anochecida samba vallista, comlice de amor.
Luna de Angastaco desangra el sol en la mañana estival
niña mujer temprana muere al aclarar
niña mujer temprana orgullosa, muere al aclarar.
Estribillo




[Luna vallista chords][Luna vallista cifra]
© LaCuerda.net · aviso legal · privacidad · es · en · pt · contacto