Tablatura para Guitarra de Chaqueño Palavecino: Luna vallista
Conexión · Inscripción
Letras y Acordes
Pantalla Completa
Imprimir
Versión Texto
Añadir Favorito
Otras Versiones

Mostrar Diagramas
Desfile Automático
Manipular Acordes
Formato del Texto


Luna vallista(TAB)

Chaqueño Palavecino

calidad:
cpal0422
AUTOR: Chaqueño Palavecino  corregir
ALBUM: Juan de la calle (2004)
Enviado por emanuel
LUNA VALLISTA.

TRANSCRIPCION DE FERANANDA Garcia...¡


1---9---11---13--/-9---11---13--/---9---13--9- --/--15-15-15-15—
2--10--12---15--/10—12---15--/--10--15--10--/--17-17-17-17—15---
3-----------------/---------------------------------------------
                   (***)
1----13—11—9----7---5---4-----/
12—10—9---7------5--/
-----------------------------

2---11-10-------------------/--------------------------------
3-----------12-10-9---------/---9--10-12---9--10-12----------
4----------------------12---/--------------------------------
5 --------------------------/--------------------------------

2-----------------------------------------/
3-----10-12------10-12----------/
4---10-10----------10---------10-------/
5---------------------------------------/

1---1-----3-----3-------5-------9-------11-------------/---
2-----3-----3------5-------6------11------12-----------/---
3----------------------------------------------------------
4----------------------------------------------------------

1------5------------/----------------/
2--------8-6-5-----/----------------/
3--------------------7--/---2-0----------/
4------------------------/-------3-2-0----/


(***) =  la pua para arriba y abajo.
Este fichero es trabajo propio de su transcriptor y representa su interpretación personal de la canción. El material contenido en esta página es
para exclusivo uso privado, por lo que se prohibe su reproducción o retransmisión, así como su uso para fines comerciales.

© LaCuerda.net · Aviso Legal · Privacidad