Acordes de Guitarra » C »Chancho en Piedra » No ha sido facil (Tab)

No ha sido facil
Chancho en Piedra

Letras, Notas, Punteos, Tablaturas y Acordes de Guitarra (Tabs & Chords)

  • Tablatura
       C           D
    |--0---0--0-0--2--2-2-2--|
    |--1---1--1-1--3--3-3-3--|
    |--0---0--0-0--2--2-2-2--|
    |--2-----------0---------|
    |--3---------------------|
    |------------------------|
    ... básicamente hace variaciones sobre estos dos acordes de esta manera
    resaltando las notas agudas del acorde.
    
    C-D-C-D
    (entra el bajo)
    C-D-C-D
    
    C     D
    U-u-u Uuuuuu
    C     D
    U-u-u Uuuuuu
    C     D
    U-u-u Uuuuuu
    
  • Tab p/Bajo
    Ojala q este buena la cansion y si no me mandan un mail pa corregirla
    po ya eso no mas
    aqui ta
    
    
    Guitarra sola
    Entra el bajo
    uuuuuuuuuuuuuuuuuuuuuuuuuu
    G-----------------------------------|  X6
    D---------------3--5--3-------------|
    A--~3-------5-----------5-----------|
    E-----------------------------------|
    No ha sido facil aceptar….
    G---------------------------------------|
    D---------------3--5--3-----3--5--3-----|  X8
    A--~3-------5-----------5---------------|
    E---------------------------------------|
    uuuuuuuuuuuuuuuuuuuuuuu
    G-----------------------------------|
    D---------------3--5--3-------------|
    A--~3-------5-----------5-----------| X4
    E-----------------------------------|
    Y la distancia no me pudo ayudar….
    G---------------------------------------|
    D---------------3--5--3-----3--5--3-----|  X8
    A--~3-------5-----------5---------------|
    E---------------------------------------|
    uuuuuuuuuuuuuuuuuuuuuuu
    G--------------------------------|     --------------------------|
    D-------------
  • +
    ¡Colabora con nosotros!
    Envíanos tu versión de esta canción

Letra de No ha sido facil
... básicamente hace variaciones sobre estos dos acordes de esta manera
resaltando las notas agudas del acorde.
(entra el bajo)
U-u-u Uuuuuu
U-u-u Uuuuuu
U-u-u Uuuuuu
U-u-uuuuuuuu
No ha sido fácil aceptar la realidad
me tengo que marchar
no te puedo olvidar
pretendo realizar un trip hacia alta mar
vivir mi vida allá
para interpretar... solamente
U-u-u Uuuuuu
U-u-u Uuuuuu
U-u-u Uuuuuu
U-u-uuuuuuuu
Y la distancia no me pudo ayudar
las fuerzas del inicio se agotan al final
y quiero entender
me cuesta comprender
que debo aceptar en vez de tratar de olvidar
U-u-u Uuuuuu
U-u-u Uuuuuu
U-u-u Uuuuuu
U-u-u Uuuuu-u-u U-u-u
***********************************************************
***********************************************************
Algunos tratan de entender (algunos tratan de entender)
y no descubren nada
U-u-u Uuuuuu
U-u-u Uuuuuu
U-u-u Uuuuuu
U-u-u Uuuuuu
Que acepte el destino
todo cambio es para mejor
otros creen que lo quiso Dios
no hay excusas para el dolor
y quiero ver o poder saber
que donde tú estés te encuentres bien
cierro mis ojos y pienso en ti
para que algín día vuelvas junto a mi
U-u-u Uuuuuu
U-u-u Uuuuuu
U-u-u Uuuuuu
U-u-u Uuuuu-u-u U-u-u
***********************************************************
***********************************************************
Algunos tratan de entender (algunos tratan de entender)
y no descubren nada en que creer
Algunos mueren por amor
los derrotó el dolor
U-u-u Uuuuuu
U-u-u Uuuuuu
U-u-u Uuuuuu
U-u-u Uuuuuu
No trates de entender lo que pasó ayer
no existe explicación
Uuuuu-u-u Uuuuu-u-u U-u-u
visita www.tabsenpiedra.tk
todo el Desde el Batiscafo el 22/12/05!!!



© LaCuerda.net · Aviso Legal · Privacidad