Acordes de Guitarra » C »Chancho en Piedra » Hacia el Ovusol (Tab)

Hacia el Ovusol
Chancho en Piedra

Letras, Notas, Punteos, Tablaturas y Acordes de Guitarra (Tabs & Chords)

  • Tablatura
    INTRO                                                                          
    E||--------------------------------|
    B||--------------------------------|
    G||--------------------------------|
    D||--5--6--7-----------------------|
    A||-----------5--6--5-----5-----7--|
    E||--------------------8-----8--5--|
    
    
    E----------------------------5--|----------------------------------|
    B----------------------------5--|----------------------------------|
    G----------------------------5--|----------------------------------|
    D--5--6--7-------------------5--|-5--6--7--------------------------|
    A-----------5--6--5-----5-------|----------5h6--5---5--5h6--5---5--|
    E--------------------8-----8----|-----------------8-----------8----|
    
               
    E----------------------------------------||
    B-----------------------------------13^--||
    G----------------------------------------||
    D----------------------------------------||
    A--5--6--5-----5--5--6--5-----5--7-------||
    E-----------8--------------
  • Tab p/Bajo
     Intro:
    
    |--Guitarra------|
    |----------------|
    |----------------|
    |----------------|
    
    
    G|-----------|----------------------|------------------|------------------|-----------------|
    D|-----------|--5-6-7---------------|--5-6-7-----------|------------------|-----------------|
    A|------0----|--------5h6h5-3-5--3~-|--------5h6h5-3-5-|--------5h6h5-3-5-|---5h6h5-3-5-0~~-|
    E|-----------|----------------------|------------------|------------------|-----------------|
    
       'Empieza la carrera hacia...'    Verso (2 veces):
    G|--------------------------|-------------------------|-------------------------|-|
    D|--------------------------|-------------------------|-------------------------|-|
    A|---0-0-0--5h6h5-3-5-0-0-0-|--0-0-0--5h6h5-3-5-0-0-0 |--0-0-0--5h6h5-3-5-3-3-3-|-|
    E|--------------------------|-------------------------|-------------------------|-|
    
        Coro (3 veces):                     Fin del primer coro (parte rápida):
    G|-------------------------||--------------------
  • +
    ¡Colabora con nosotros!
    Envíanos tu versión de esta canción



Videos de Hacia el Ovusol
[ver más videos]

[ver todas las canciones]


© LaCuerda.net · Aviso Legal · Privacidad