Acordes de Guitarra » C »Chancho en Piedra » Chancho (Tab)

Chancho
Chancho en Piedra

Letras, Acordes y Tabs para Guitarra, Bajo y Ukulele

  • D#              C#             D#
    A)No puedo tolerar la formalidad 
           C#                         D#
    Soy indiferente a toda esa hueva 
                        C#      D#           
    No estoy de acuerdo con el buen vestir
           C#         D#
    Eso no es para mí
    
          D#                    C#
    B)Sé entretenerme, sé carretear
      D# D#                       C#   D#
    Los Chancho en Piedra sabemos chacotear, chacotear, cha...
    C#          D#
    Chancho.
    
        
    A)No aspiro ha buen vivir, eso no es para mí
    Si es que té molesta que mande todo a la cresta
    Tienes miles de grupos que escuchar
    
  • Amigos esta es una de las kanciones ke mas me gusta del peor asi ke a ke aki la tienen
    disfreutenla y pongale power ke hay ke sakar humo kon los dedos ojo sin frakturarse
     
    Intro            (¡Chancho¡)
    |---------------5---------|
    |-----------3h5----5b-5-3-|
    |-3-3-3-3-3---------------|
    |-------------------------|
    
    |--------------------------------------------------------------------|
    |--------------------------------------------------------------------|
    |-5-5-3-0-------3--5-5-3-0-------3--5-5-3-0-------3--5-5-3-0-------3-|
    |---------0h3h5------------0h3h5------------0h3h5------------0h3h5---|
    
    |--------------------------------------------------------------------|
    |--------------------------------------------------------------------|
    |-5-5-3-0-------3--5-5-3-0-------3--5-5-3-0-------3--5-5-3-0-------3-|
    |---------0h3h5------------0h3h5------------0h3h5------------0h3h5---|
    
    Verso(No puedo tolerar....)
    |----------------------------------------------------------------
  • +
    ¡Colabora con nosotros!
    Envíanos tu versión de esta canción

Letra de Chancho
A)No puedo tolerar la formalidad
Soy indiferente a toda esa hueva
No estoy de acuerdo con el buen vestir
Eso no es para mí
B)Sé entretenerme, sé carretear
Los Chancho en Piedra sabemos chacotear, chacotear, cha...
Chancho.

A)No aspiro ha buen vivir, eso no es para mí
Si es que té molesta que mande todo a la cresta
Tienes miles de grupos que escuchar
No malgastes aire, mándate a cambiar.
B) esta aya arriba
Fue Willy... El Chancho!
Fue Marco... El Chancho!, fue el Danny... Él chancho
Fue Willy
A)En el chiquero de los Chancho
No importa si estas borracho, me importa que estés hay
Pa poder gritar C-H-I chi! E-L-E le
Viva chile mierda y los chancho en piedra.
B) esta aya arriba
Soy un Chancho en Piedra... yo soy libre en mi actuar
Soy un Chancho en Piedra... no ave de corral
Soy un Chancho en Piedra... Necesito crear
Soy un Chancho en Piedra... Peor es mascar lauchas
Soy un Chancho en Piedra
Soy un Chancho en Piedra
AQUÍ ESTA EL SISTEMA AMERICANO:
HOLA A TODA LA COMUNIDAD MARRANA ESPERO QUE ESTETEMA LE SEA
FACIL DE SACARLO HE TRATADO DE PONER LO MÁSFACIL QUE PUDE.
CUALQUIER ONSULTA HACÉRMELA SABER POR MSN O POR MI E-MAIL.
¡¡¡¡VIVACHILE MIERDA Y LOS CHANCHOEN PIEDRA!!!!!




[Chancho chords][Chancho cifra]
© LaCuerda.net · aviso legal · privacidad · es · en · pt · contacto