Acordes de Guitarra » C »Chalino Sanchez » Las nieves de enero (Tab)

Las nieves de enero
Chalino Sanchez

Letras, Acordes y Tabs para Guitarra, Bajo y Ukulele

  • C
    SE HA LLEGADO EL MOMENTO
    
    CHATITA DEL ALMA
                      G7
    DE HABLAR SIN MENTIRAS
    
    ESPERE MUCHO TIEMPO
    
    PA VER SI CAMBIABAS
                C
    Y TU NI ME MIRAS
    
    
    AL PRINCIPIO DIJISTE
    
    QUE YA QUE VINIERAN
                    G7
    LAS NIEVES DE ENERO
    
    
  • G|-----------------------------------
    D|-----------------------------------
    A|-----------------------------------
    E|-----------------------------------
    
    E|--1--3--5--5--7--8---7--7--5--3--
    B|--3--5--6--6--8--10--8--8--6--5--
    G|---------------------------------
    D|---------------------------------
    A|---------------------------------
    E|---------------------------------
    
    E|--3--1--3--3--5--7--5--3--5--3--1--
    B|--5--3--5--5--6--8--6--5--6--5--3--
    G|-----------------------------------
    D|-----------------------------------
    A|-----------------------------------
    E|-----------------------------------
    
    E|--0--0--1--1--3-----5-----3-----1-----0--
    
  • +
    ¡Colabora con nosotros!
    Envíanos tu versión de esta canción

Letra de Las nieves de enero
SE HA LLEGADO EL MOMENTO
CHATITA DEL ALMA
DE HABLAR SIN MENTIRAS
ESPERE MUCHO TIEMPO
PA VER SI CAMBIABAS
Y TU NI ME MIRAS
AL PRINCIPIO DIJISTE
QUE YA QUE VINIERAN
LAS NIEVES DE ENERO
IR A VER A LA VIRGEN
Y LUEGO CASARNOS
SERIA LO PRIMERO
YA SE FUERON LAS NIEVES DE ENERO
Y LLEGARON LAS FLORES DE MAYO
YA LO VES ME HE AGUANTADO A LO MACHO
Y MI AMARGO DOLOR ME LO CALLO
YA SE FUERON LAS FLORES
Y LLEGO EL INVIERNO
Y TU NI ME MIRAS
ES POR ESO QUE DIGO
SE LLEGO EL MOMENTO
DE HABLAR SIN MENTIRAS
AL PRINCIPIO DIJISTE
QUE YA QUE VINIERAN
LAS NIEVES DE ENERO
IR A VER A LA VIRGEN
Y LUEGO CASARNOS
SERIA LO PRIMERO
NO SOPORTO YA MAS TUS MENTIRAS
ESTA ESPERA ME ESTA DESTROZANDO
AL MIRAR QUE HAN PASADO LOS AÑOS
Y NO PIENSO MORIRME ESPERANDO
YA SE FUERON LAS NIEVES DE ENERO
Y LLEGARON LAS FLORES DE MAYO
YA LO VES ME HE AGUANTADO A LO MACHO
Y MI AMARGO DOLOR ME LO CALLO
......Bueno!!! Ahí está la canción con sus tonos.
Si necesitan mas canciones de Chalino y no aparecen
en Atame, envienme un correo a la direccion:
aarova74@hotmail.com y con gusto les envío su cancion
antes de incorporarla al buscador ATAME.
Suerte chalinillos!!!




[Las nieves de enero chords][Las nieves de enero cifra]
© LaCuerda.net · aviso legal · privacidad · es · en · pt · contacto