Acordes de Guitarra » C »Carlos Varela » Una palabra (Tab)

Una palabra
Carlos Varela

Letras, Acordes y Tabs para Guitarra, Bajo y Ukulele

  •    C    D/F#    G
    Una verdad no dice nada
     CDIS                Am*
    y al mismo tiempo lo esconde todo
    D4    D4/C      G/B
    como una hoguera que no se apaga
    G*        B7     C
    como una piedra que nace polvo.
    
    
     RIFF   C   D/F#    G  B#*  C
    
    D4/F#  D7/F#  G    B7   C
    
    
    
    Si un día me faltas no seré nada
    y al mismo tiempo lo seré todo
    porque en tus ojos están mis alas
    y está la orilla donde me ahogo,
    
  • (A)
    (Dm)
           C    (C7)       F
    Una palabra no dice nada
               A7     A7/C#             Dm
    y al mismo tiempo     lo esconde todo
                 C     C7/Bb                F/A
    igual que el viento     que esconde el agua
             Edim   A7                Dm
    como las flores    que esconde el lodo.
    
    (A)
    Una mirada no dice nada
    y al mismo tiempo lo dice todo
    como la lluvia sobre tu cara
    o el viejo mapa de algún tesoro.
             C     C7/Bb           F
    como la lluvia       sobre tu cara
               Edim  A7           Dm
    o el viejo mapa    de algún tesoro.
    
  • Una palabra no dice nada
    y al mismo tiempo lo esconde todo
    
    E -3-2-0-0-------------|-------0-----2-3-2-3-2-0-|
    B ---------3-----3-1-0-|-----0---4-0-------------|
    G -------------2-------|-0-2---------------------|
    D -----------0---------|-------------------------|
    A ---------------------|-------------------------|
    E ---------------------|-------------------------|
    
    
    igual que el viento que esconde el agua
    como las flores que esconde el lodo.
    
    E ---------------------|---------------------|
    B -----0-3-3-----3-1-0-|-------0-----1-0-----|
    G -0-2---------2-------|-0---0---2-------2-0-|
    D -----------0---------|---4-----------------|
    A ---------------------|-----------2---------|
    E ---------------------|---------------------|
    
    
    Una mirada no dice nada
    y al mismo tiempo lo dice todo
    
    E -3-2-0-0-------------|-------0-----2-3-2-3-2-0-|
    B ---------3-----3-1-0-|-----0---4-0-------------|
    G -------------2-------|-0-2---------------------|
    D -----------0---------|-------------------------|
    A --------
  •                   C       Dsus4       Gsus                Bsus
    1º|-----3--2--0-|-0------------------|------------------|-0-----------2--3-|
    2º|-------------|-1---3------------3-|-1---0----------0-|-0---4----0-------|
    3º|-----4--2--0-|-0-------------0----|-0--------0--2----|-2----------------|
    4º|-------------|-2----------4-------|-0----------------|------------------|
    5º|-------------|-3-------5----------|------------------|-2----------------|
    6º|-------------|--------------------|-3----------------|------------------|
    
    
    
        C#m7-11            D/F#
    1º|-2---0------------|------------------------|-
    2º|-0--------------0-|-3--------------------3-|--
    3º|-0--------0--2----|-2-----2-----------2----|--
    4º|------------------|-0--0-----0-----0-------|--
    5º|-3----------------|------------------------|--
    6º|------------------|-2-----------2----------|--
    
        Gsus              B7/F#        B7
      |------------------|------------------------|
    
  • +
    ¡Colabora con nosotros!
    Envíanos tu versión de esta canción

Letra de Una palabra
Una verdad no dice nada
y al mismo tiempo lo esconde todo
como una hoguera que no se apaga
como una piedra que nace polvo.
Si un día me faltas no seré nada
y al mismo tiempo lo seré todo
porque en tus ojos están mis alas
y está la orilla donde me ahogo,
porque en tus ojos están mis alas
y está la orilla donde me ahogo.
ACORDES:
RIFF




[Una palabra chords][Una palabra cifra]
© LaCuerda.net · aviso legal · privacidad · es · en · pt · contacto